Pieśni Patriotyczne

Akademie i apele z okazji świąt narodowych czy rozmaite formy spotkań z historią to wydarzenia, podczas których można posłucha na żywo…

pełny ekran dodaj teledysk

Rota – Pieśni Patriotyczne

tekst piosenki chwyty na gitarę tabulatura

słowa: M. Konopnicka
muzyka: F. Nowowiejski

1. Nie rzucim ziemi skąd nasz ród,        g D g
Nie damy pogrześć mowy,                    g B F

Polski my naród, polski lud,                  B g D g

Królewski szczep piastowy.                  c g D7
Nie damy by nas zniemczył wróg!         g D g


Ref.: Tak nam dopomóż Bóg!                c G c
Tak nam dopomóż Bóg!                        D g D g


2. Do krwi ostatniej kropli z żył
Bronić będziemy ducha,
Aż się rozpadnie w proch i w pył
Krzyżacka zawierucha.
Twierdzą nam będzie każdy próg.


Ref.: Tak nam dopomóż Bóg!
Tak nam dopomóż Bóg!


3. Nie damy miana polski zgnieść,

Nie pójdziem żywo w trumnę

W Ojczyzny imię i w jej cześć
Podnosim czoła dumne.
Odzyska ziemię dziadów wnuk.


Ref.: Tak nam dopomóż Bóg!
Tak nam dopomóż Bóg!


4. Nie będzie Niemiec pluł nam w twarz,

Ni dzieci nam germanił!

Orężny wstanie hufiec nasz,
Duch będzie nam hetmanił.
Pójdziem, gdy zabrzmi złoty róg.


Ref.: Tak nam dopomóż Bóg!
Tak nam dopomóż Bóg!

 



e----------------------------------------------------0------------------------
H-----------1-------------------------------1--3-----3---------------------
G-----2-4------2---4--1--2------2--4------------------------------------

D-2------------------------------2-------------------------------------------
A-----------------------------------------------------------------------------
E-----------------------------------------------------------------------------

 

e------------------0-------------------------------0--1------------------------
H--------1--3---------3---1--0-------------3----------3-1-0---------------
G--0--------------------------------2----2------------------------------------
D-------------------------------------------------------------------------------
A-------------------------------------------------------------------------------
E-------------------------------------------------------------------------------

 

e----------------------------------------------------------0--1------0-----------------------
H----------------1----------------------------------3-------------------------3-1-0--------
G--------2--4-----2-----4--1--2----2---2-2-----------------------------------------2--
D--2---------------------------------------------------------------------2--------------------
A----------------------------------------------------------------------------------------------
E----------------------------------------------------------------------------------------------

 

 

Akordy występujące w tym utworze

g akord Gm
D akord D
g akord Gm
g akord Gm
B akord B
F akord F
B akord B
g akord Gm
D akord D
g akord Gm
c akord Cm
g akord Gm
D7 akord D7
g akord Gm
D akord D
G akord G

1
fatalny
0
słaby
1
przeciętny
0
niczego sobie
3
wartościowy
2
bardzo dobry
19
wyśmienity
wyśmienity– 26 głosów
twoja ocena:


Dodaj komentarz anonimowo lub zaloguj się
 

Wpisz kod zabezpieczający:


Wraz z komentarzem będzie zapisany twój adres IP.
Obraźliwe komentarze będą usuwane.
Zaba
Zaba 24 września 2009, 19:50
bardzooo proste ! zagram to mojej babci! :)
kuku 13 listopada 2011, 19:50
no chyba cie cos potentegowalo "_"
to jest trudne jak cholera
nie umiem
koko 1234
koko 1234 7 listopada 2013, 16:18
to proste zagram panu od muzyki
Michał
Michał 14 marca 2014, 17:16
Jakim biciem to zagrać??
nikc
nikc 17 kwietnia 2014, 19:45
jakie to prosta prostrzego nie widziałam
JUPIIIIIIIII
JUPIIIIIIIII 10 września 2014, 17:18
JUPIIIIIIIII
rss
33 724 wyświetlenia
przysłano: 12 września 2008

Strona korzysta z plików cookie w celu realizacji usług zgodnie z Polityką prywatności.
Możesz określić warunki przechowywania lub dostępu do cookie w Twojej przeglądarce.

Zgłoś obraźliwą treść

Uzasadnij swoje zgłoszenie.

wpisz wiadomość


lub tradycyjnie
login lub email
hasło
współpraca