Mirami


dodaj zdjęcie wykonawcy
Pomysł na tętniącą seksapilem i zachwycającą wokalem formację muzyczną powstał w głowie znanego kompozytora i producenta Andrew Bakun‘a.…

pełny ekran

Seksualna / Sexualna – Mirami

tekst piosenki chwyty na gitarę tabulatura

Refren po ukraińsku [polska wymowa]:

 

Seksualna, nebezpeczna,
Nepokirna ta bezapareczna,

Spakuszaju, nastupajesz,
Ce najkraścia, nisz ti dobre znajesz.

 

 

Refren po polsku:

 

Seksualna, niebezpieczna,

taka jestem, lubię być niegrzeczna,
Seksualnie doskonała,

nie dostaniesz nigdy mego ciała.

 

 

Akordy

 

Przez całą piosenkę takie same: A B E C#m

(można też grać z kapodasterem na 4 progu na akordach: F G C Am)

 

 

Melodia na gitarze:

 

    A               B
E||-----------4---|----------------|
B||--5--5--5----7-|---5--5--4------|
G||---------------|------------4---|
D||---------------|----------------|
A||---------------|----------------|
E||---------------|----------------|
                  

 

E                   C#m
------------------|-4--4----------------||
------------------|--------7--7--5--4---||
------------------|-------------------6-||
----6--6--6--6----|---------------------||
------------------|---------------------||
------------------|---------------------||
 

dodaj akordy


0
fatalny
1
słaby
0
przeciętny
1
niczego sobie
0
wartościowy
0
bardzo dobry
2
wyśmienity
bardzo dobry– 4 głosy
twoja ocena:


Dodaj komentarz anonimowo lub zaloguj się
 

Wpisz kod zabezpieczający:


Wraz z komentarzem będzie zapisany twój adres IP.
Obraźliwe komentarze będą usuwane.
kuku 22 sierpnia 2011, 14:29
ta piosenka jest spoko :)
ale chwyty sa do dupy :b
kuku 22 sierpnia 2011, 14:31
spoko ale chwyty do dupy :b
apropo seksu :D kto ma ochote bo ja na seks jestem chętna ;)
kuku 22 września 2011, 16:23
no nikt nie jest chetny?
milymichas
milymichas 4 listopada 2011, 20:07
Chwyty są bardzo dobre. Przypominam, że użyty tu akord B to angielskie B czyli polskie H.

Ja jestem chętny, a co?
rss
12 337 wyświetleń
przysłano: 5 lipca 2011

Strona korzysta z plików cookie w celu realizacji usług zgodnie z Polityką prywatności.
Możesz określić warunki przechowywania lub dostępu do cookie w Twojej przeglądarce.

Zgłoś obraźliwą treść

Uzasadnij swoje zgłoszenie.

wpisz wiadomość


lub tradycyjnie
login lub email
hasło
współpraca