pełny ekran dodaj teledysk

Jeśli nie rozjadą nas czołgi – Happysad

chwyty na gitarę tabulatura

słowa: Happysad
muzyka: Happysad
Autor opracowania: denu, Themer,
Pochodzi z: www.chords.pl

[intro]:

G C a D x2

[zwrotka]:

G a G a
Jeśli nie...
itd.

[refren]:

e h
Mamy spore...
e h
Mamy spore...
C H e C G a G a
Przeżyć jeszcze...
C H e C
Przeżyć jeszcze...


[zwrotka]

[refren]

E|----------------------------------------------------------
H|---12-10--12-10--12-10--13-13-13-13-12--12-12--10--12--/--
G|----------------------------------------------------------

[zwrotka]

[refren]

[intro]


Themer:
Intro [i outro :)]

e|----------------------------------------------------------
b|----------------------------------------------------------
g|-12-12-12-12--12-12-12--12-12-14-14-11-11-11-11-11-11-9-9-
d|----------------------------------------------------------
a|----------------------------------------------------------
e|----------------------------------------------------------

---------------------------------------------------------------------------||
---------------------------------------------------------------------------||
-9-9-9-9-5-5--5-5--5-5--5-5-5-5-12-12-12-12-12-12-12-12--11-11--11-14-11---||
---------------------------------------------------------------------------||
---------------------------------------------------------------------------||
---------------------------------------------------------------------------||

Przed Zwrotkami:

e|-----------------------------------------------------------||
b|-----------------------------------------------------------||
g|-4--4-4-4-4-4-4----------5---------------------9-9--9-9-7--||
d|----------------7-7-7-7-----4--5-5-5-5-5-5-5-5-------------||
a|-----------------------------------------------------------||
e|-----------------------------------------------------------||

e|-----------------------------------------------------------||
b|-----------------------------------------------------------||
g|-4--4-4-4-4-4-4----------5------------7----7----4----------||
d|----------------7-7-7-7-----4--5--5-5---5----5----7--------||
a|-----------------------------------------------------------||
e|-----------------------------------------------------------||


Po 2 Refrenie:] Latawiec gra riff powyżej, a Quka gra coś co mi ciężko
uchwycić... ;P

Zaczyna się tak:

e|-----------------------------------------------------------||
b|-----------------------------------------------------------||
g|-16-14--16-14--16-14--17-17-17-17-17--17--16--16-16-14-16--||
d|-----------------------------------------------------------||
a|-----------------------------------------------------------||
e|-----------------------------------------------------------||


A kończy:

e|------------------------------------------------------------------||
b|------------------------------------------------------------------||
g|-16-14--16-14--16-14--17-17-17-17-17--17-16-14-16-14-12-14-12-11--||
d|------------------------------------------------------------------||
a|------------------------------------------------------------------||
e|------------------------------------------------------------------||
dodaj akordy


0
fatalny
0
słaby
0
przeciętny
0
niczego sobie
1
wartościowy
0
bardzo dobry
1
wyśmienity
bardzo dobry+ 2 głosy
twoja ocena:

Dodaj komentarz anonimowo lub zaloguj się
 
8 452 wyświetlenia
przysłano: 26 kwietnia 2008

Inne interpretacje tego utworu

HappySad

happysad – zespół rockowy założony w 2001 roku w miejscowości Skarżysko-Kamienna przez muzyków, którzy już wcześniej grali razem. Od 1995 …

Strona korzysta z plików cookie w celu realizacji usług zgodnie z Polityką prywatności.
Możesz określić warunki przechowywania lub dostępu do cookie w Twojej przeglądarce.

Zgłoś obraźliwą treść

Uzasadnij swoje zgłoszenie.

wpisz wiadomość


lub tradycyjnie
login lub email
hasło