pełny ekran dodaj teledysk

Jeszcze, jeszcze – Happysad

chwyty na gitarę tabulatura

słowa: Happysad
muzyka: Happysad
Autor opracowania: denu,
Pochodzi z: www.chords.pl

[zwrotka]:

D f# h
Dzień, który...
e A D
I marnie...
f# h
Może strułem...
e A
Nie wyspałem...

itd.


[refren]:

D A
I może sama...
D
Jak mam...
A D
Że już....
A D
Że kiedy....
A f#
Już nie...
h f#
Już nie...
h
Już nie...
G h e A
Jeszcze, jeszcze..


Autor opracowania: Jamniok

wstawka po zwrotce
e|-2-2-2--2-2-3-2--2-2-2-2/5-5-5-3-2-2-2-0-2-3-0-

wstawka po refrenie
e|-----5-----5-5-----------|
b|-7-8---7-8-----8-7-7h8-5-|
g|-------------------------|
d|-------------------------|
a|-------------------------|
e|-------------------------| x2
c.d.
e|-s12-10-9-12-10-9-9-9-7-5--------|----5----5-5/7-5---------5/7--------|
b|--------------------------8--7-5-|-7-8--7-8--------8-7-8-7-----8-7----|
g|---------------------------------|--------------------------------7---|
d|---------------------------------|------------------------------------|
a|---------------------------------|------------------------------------|
e|---------------------------------|------------------------------------|
dodaj akordy


1
fatalny
0
słaby
0
przeciętny
1
niczego sobie
1
wartościowy
0
bardzo dobry
0
wyśmienity
przeciętny 3 głosy
twoja ocena:

Dodaj komentarz anonimowo lub zaloguj się
 
kendzi
kendzi 22 marca 2007, 16:04
znakomite taby
zaitsev 22 marca 2007, 17:39
@RE kendzi: www.chords.pl
Adriana
Adriana 11 marca 2008, 17:09
nuta dobijająca trochę ale fajnie sie jej slucha
rss
13 895 wyświetleń
przysłano: 26 kwietnia 2008

Inne interpretacje tego utworu

HappySad

happysad – zespół rockowy założony w 2001 roku w miejscowości Skarżysko-Kamienna przez muzyków, którzy już wcześniej grali razem. Od 1995 …

Strona korzysta z plików cookie w celu realizacji usług zgodnie z Polityką prywatności.
Możesz określić warunki przechowywania lub dostępu do cookie w Twojej przeglądarce.

Zgłoś obraźliwą treść

Uzasadnij swoje zgłoszenie.

wpisz wiadomość


lub tradycyjnie
login lub email
hasło