pełny ekran dodaj teledysk

Jolka, Jolka – Budka Suflera

chwyty na gitarę tabulatura

Budka Suflera - Jolka Jolka
 made by  Avatar

Intro:
   D
E|-2-----2---|
H|-----3-----|
G|---2-------|    x4
D|-----------|
A|-----------|
E|-----------|


Zwrotka:

   D        A         h               D     A      h
E|-2-----2--0-----0-------------------|-2-----2--0-----0-------------------|
H|-----3--------2----------3-------3--|-----3--------2----------3-------3--|
G|---2--------2------4---4---4---4----|---2--------2------4---4---4---4----|
D|---------------------4-------4------|---------------------4-------4------|
A|------------------------------------|------------------------------------|
E|------------------------------------|------------------------------------|


   D        A          e          h          D          A           Gmaj7
E|-2-----2--0-----0--(0h)3-2-0-------------|-2-----2--0-----0--------------------------------2--|
H|-----3--------2-----------------------3--|-----3--------2----------3-3-----3-3-----3-----3----|
G|---2--------2-------------------4---4----|---2--------2------4---4-------4-------4-----4------|
D|----------------------------------4------|---------------------5-------5-------5-----5--------|
A|-----------------------------------------|----------------------------------------------------|
E|-----------------------------------------|----------------------------------------------------|




Po ostatniej jest (outro):

Gmaj7
E|----------------------------------|
H|-------3-------3-------3-------3--|
G|-4---4---4---4---4---4---4---4----|
D|---5-------5-------5-------5------|
A|----------------------------------|
E|----------------------------------|

Zwrotki: D A h
D A h
D A e(patrz niżej)h
D A G

Ref.: e G D
e G D
e G D
e G A

A teraz bajer - po prostu zagraj XD

E|----0-2-2-2-0----0----------0-2-2-5-5-(5)-7~--|
H|--3-----------3----3-2-0--3-------------------|
G|----------------------------------------------|
D|----------------------------------------------|
A|----------------------------------------------|
E|----------------------------------------------|

E|----0-2-2-2-0----2-0----------------0--------|
H|--3-----------3------3-0--0-2-3-3-3---2---0--|
G|----------------------------------------2----|
D|---------------------------------------------|
A|---------------------------------------------|
E|---------------------------------------------|

To e najlepiej grać:

E|-3-|
H|-5-|
G|-4-|
D|-2-|
A|-x-|
E|-x-|

Ale można też grać normalnie.



Akordy występujące w tym utworze

e akord Em
G akord G
D akord D
A akord A
h akord Hm
Gmaj7 akord Gmaj7

0
fatalny
1
słaby
0
przeciętny
2
niczego sobie
2
wartościowy
5
bardzo dobry
16
wyśmienity
wyśmienity– 26 głosów
twoja ocena:

Dodaj komentarz anonimowo lub zaloguj się
 
robYn 14 sierpnia 2010, 13:25
Według mnie itro idze tak:
D
E|-2------2---|
H|------3-----|
G|-----------| x4
D|----4-----|
A|-----------|
E|-----------|

...dalej tez jest namieszane
WerkaxD 10 lutego 2011, 20:30
Chcę dodać tekst!!
Sonarka
Sonarka 26 lipca 2011, 14:25
1. Jolka, Jolka,
Pamiętasz lato ze snu,
Gdy pisałaś: "tak mi źle,
Urwij się choćby zaraz,
Coś ze mną zrób,
Nie zostawiaj tu samej, o nie".

Żebrząc wciąż o benzynę,
Gnałem przez noc,
Silnik rzęził ostatkiem sił,
Aby być znowu w Tobie,
Śmiać się i kląć,
Wszystko było tak proste w te dni.

Dziecko spało za ścianą,
Czujne jak ptak,
Niechaj Bóg wyprostuje mu sny!
Powiedziałaś, że nigdy, że nigdy aż tak
słodkie były, jak krew Twoje łzy

REF:
Emigrowałem z objęć Twych nad ranem,
Dzień mnie wyganiał, nocą znów wracałem,
Dane nam było, słońca zaćmienie,
Następne będzie, może za sto lat.

2. Plażą szły zakonnice, a słońce w dół,
Wciąż spadało nie mogąc spaść,
Mąż tam w świecie za funtem, odkładał funt,
Na Toyotę przepiękną, aż strach.

Mąż Twój wielbił porządek i pełne szkło,
Narzeczoną miał kiedyś, jak sen,
Z autobusem Arabów zdradziła go,
Nigdy nie był już sobą, o nie

REF:
Emigrowałem z ramion Twych nad ranem,
Dzień mnie wyganiał, nocą znów wracałem,
Dane nam było, słońca zaćmienie,
Następne będzie, może za sto lat.

3. W wielkiej żyliśmy wannie i rzadko tak,
Wypełzaliśmy na suchy ląd,
Czarodziejka gorzałka tańczyła w nas,
Meta była o dwa kroki stąd.

Nie wiem ciągle dlaczego zaczęło się tak,
Czemu zgasło też nie wie nikt,
Są wciąż różne koło mnie, nie budzę się sam,
Ale nic nie jest proste w te dni.
rychu
rychu 5 pazdziernika 2014, 20:57
grając z tej tabulatury wychodzą jakieś totalne głupoty zero melodii
Kondzik
Kondzik 10 grudnia 2014, 18:43
Ten bajer to proponuje
E|----0-2-2-2-0----0----------0-2-2-2-5-5-(5)-7~--|
H|--3-----------2----3-2-0--3-------------------|
G|----------------------------------------------|
D|----------------------------------------------|
A|----------------------------------------------|
E|----------------------------------------------|



E|----0-2-2-2-0----2-0----------------0--------|
H|--3-----------2------2-0--0-2-3-3-3---2---0--|
G|----------------------------------------2----|
D|---------------------------------------------|
A|---------------------------------------------|
E|---------------------------------------------|
rss
98 434 wyświetlenia
przysłano: 25 września 2007

Inne interpretacje tego utworu

Budka Suflera

Budka Suflera – polski zespół rockowy założony w Lublinie w 1969 przez Krzysztofa Cugowskiego, działający do dziś w wielokrotnie zmienianym…

Strona korzysta z plików cookie w celu realizacji usług zgodnie z Polityką prywatności.
Możesz określić warunki przechowywania lub dostępu do cookie w Twojej przeglądarce.

Zgłoś obraźliwą treść

Uzasadnij swoje zgłoszenie.

wpisz wiadomość


lub tradycyjnie
login lub email
hasło