pełny ekran dodaj teledysk

Chleb z dżemem – Dżem

tabulatura

słowa: Maciek Balcar, Krzysztof Feusette
muzyka: Jurek Styczyński

Wstęp:

                                                x4
E|----x---------------x--|-------------------|
H|----x---------------x--|-------------------|
G|----x---------------x--|-------------------|
D|-2--x--4-----------x--|--7---------------|
A|-0--x--2---5--2--x--|--5---7--5--2---|
E|-----x------3--0---x--|------5--3--0---|

 

Zwrotka:

                                                x8

E|----x--------------x--|--------------------|

H|----x--------------x--|--------------------|

G|----x--------------x--|--7----------------|

D|-7--x--9--5--2--x--|--7---7---5---2--|

A|-7--x--9--5--2--x--|--5---7---5---2--|

E|-5--x--7--3--0--x--|-------5---3---0--|

                                                                x2

E|-----|------|-------x-------------x--|---------------------|          E|-----P------------|

H|-----|------|-------x-------------x--|---------------------|          H|-----U------------|

G|-----|------|-------x-------------x--|--7-----------------|          G|-----S---T-------|

D|--2--|--7--|---7--x--9--5--2--x--|--7---7---5---2--|           D|-----T---A-------|

A|--2--|--7--|---7--x--9--5--2--x--|--5---7---5---2--|           A|-----Y---K------|

E|--0--|--5--|---5--x--7--3--0--x--|-------5---3---0--|           E|----------T-------|

 

E|--------------------------------------|

H|--------------------------------------|

G|--------------------------------------|

D|---5--5---5--5---5--5---5--5----|

A|---5--5---5--5---5--5---5--5----|

E|--------------------------------------|

 

E|-------x--------------x--|--------------------|       E|-----------|        E|--------|     E|-----------|

H|-------x--------------x--|--------------------|       H|-----------|        H|--------|     H|-----------|

G|-------x--------------x--|--7----------------|       G|-----------|        G|---7---|     G|-----------|

D|---7--x--9--5--2---x--|--7---7---5---2--|       D|---2-------|        D|---7---|     D|----2-----|

A|---7--x--9--5--2---x--|--5---7---5---2--|       A|---2-------|        A|---5---|     A|----2-----|

E|---5--x--7--3--0---x--|-------5---3---0--|       E|---0-------|        E|-------|      E|----0-----|

 

E|---------------------|

H|---------------------|
G|---7----------------|
D|---7---7---5---2--|
A|---5---7---5---2--|
E|--------5---3---0--|

 

Refren:


E|------------------------|----------------------|-----------------------|-----------------|
H|------------------------|----------------------|-----------------------|-----------------|
G|------------------------|----------------------|-----------------------|-----------------|
D|--------------7-7------|----------------------|-------------7-7------|----------------|
A|---5-5-5---5-5---7--|---7-5---2---2-2--|---5-5-5---5-5--7--|---7-7--7-7--|
E|---3-3-3----------5--|---5-3----0---0-0--|---3-3-3---------5--|---5-5--5-5--|

 

E|-----------------------|-----------------------|----------------------------|-------------------------|
H|-----------------------|-----------------------|----------------------------|-------------------------|
G|-----------------------|-----------------------|----------------------------|-------------------------|
D|-------------7-7------|-----------------------|---------------------------|--7--7-7--7-7--7-7--|
A|---5-5-5---5-5--7--|---7-5---2----2-2--|---5--5-5--5-5--5-5---|--5--5-5--5-5--5-5--|
E|---3-3-3----------5--|---5-3---0----0-0--|---3--3-3--3-3--3-3---|-------------------------|

 

E|-------x----------------x--|---------------------|
H|-------x----------------x--|---------------------|
G|-------x----------------x--|---7----------------|
D|---7---x---9--5--2---x--|---7---7--5--2----|
A|---7---x---9--5--2---x--|---5---7--5--2----|
E|---5---x---7--3--0---x--|--------5--3--0----|

 

Zakończenie:

 

E|-------x----------------x--|---------------------|------------------------------------|
H|-------x----------------x--|---------------------|------------------------------------|
G|-------x----------------x--|---7----------------|------------------------------------|
D|---7---x---9--5--2---x--|---7---7--5--2----|------7-----9---5---2------------|
A|---7---x---9--5--2---x--|---5---7--5--2----|------7-----9---5---2------------|
E|---5---x---7--3--0---x--|--------5--3--0----|------5-----7---3---0------------|

dodaj akordy


2
fatalny
0
słaby
1
przeciętny
0
niczego sobie
0
wartościowy
1
bardzo dobry
2
wyśmienity
niczego sobie+ 6 głosów
twoja ocena:

Dodaj komentarz anonimowo lub zaloguj się
 
7 201 wyświetlenie
przysłano: 30 pazdziernika 2008

Inne interpretacje tego utworu

Dżem

Dżem – polska grupa muzyczna grająca rocka i blues. Zaliczana jest do najważniejszych zespołów w historii polskiej muzyki rockowo-bluesowej…

Strona korzysta z plików cookie w celu realizacji usług zgodnie z Polityką prywatności.
Możesz określić warunki przechowywania lub dostępu do cookie w Twojej przeglądarce.

Zgłoś obraźliwą treść

Uzasadnij swoje zgłoszenie.

wpisz wiadomość


lub tradycyjnie
login lub email
hasło