pełny ekran

Autobiografia – Perfect

tabulatura

-|------------------------|-7-7-7-------------------|-----------------------|-

-|-8----------------------|-8-----------------------|-----------------------|-

-|-9-------------------11-|-9-----------------------|-----------------------|-

-|-9--9----------------9--|-9------------------9----|-----------------------|-

-|-7--9--5h7--7--7--10----|-7------5h7--7-7-10-9----|-----------------------|-

-|-7--7-------------------|-------------------------|-----------------------|-


-|--------------------------------------------------------------------------|-
-|--------------------------------------------------------------------------|-
-|----------------9---------------------------------------------------------|-
-|----------------9---------------------------------------------------------|-
-|----------------7---------------------------------------------------------|-
-|--------------------------------------------------------------------------|-
Mialem dziesiec lat, gdy uslyszal o nim swiat

-|--------------------------------------------------------------------------|-
-|----------------8---------------------3-----3-----------------------------|-
-|----------------9---------------------2--2-----2--------------------------|-
-|----------------7---------------------0-----------------------------------|-
-|----------------7---------------------------------------------------------|-
-|--------------------------------------------------------------------------|-
W mej piwnicy byl nasz klub

-|--------------------------------------------------------------------------|-
-|--------------------------------------------------------------------------|-
-|--------------9-----------------------------------------------------------|-
-|--------------9-----------------------------------------------------------|-
-|--------------7-----------------------------------------------------------|-
-|--------------------------------------------------------------------------|-
Kumpel radio zniosl, uslyszalem "Blue Sued Shoes"

-|--------------------------------------------------------------------------|-
-|-------------8--------------------3-----3---------------------------------|-
-|-------------9--------------------2--2-----2------------------------------|-
-|-------------7--------------------0---------------------------------------|-
-|-------------7------------------------------------------------------------|-
-|--------------------------------------------------------------------------|-
I nie moglem w nocy spac

-|--------------------------------------------------------------------------|-
-|-----------------------------------------------8---------------3-----3----|-
-|--------9--------------------------------------9---------------2--2-----2-|-
-|--------9--------------------------------------7---------------0----------|-
-|--------7--------------------------------------7--------------------------|-
-|--------------------------------------------------------------------------|-
Wiatr odnowy wial darowano reszty kar znow sie mozna bylo smiac

-|--------------------------------------------------------------------------|-
-|--------------------------------------------------------------------------|-
-|---------9-----------------------------------------9--------------9-------|-
-|---------9-----------------------------------------7--------------9-------|-
-|---------7-----------------------------------------7--------------7-------|-
-|------------------------------------------------------------------7-------|-
W kawiarniany gwar jak tornado jazz sie wdarl I ja tez chcialem grac

-|--------------------------------------------------------------------------|-
-|--------------------------------------------------------------------------|-
-|-------9------------------------------------------------------------------|-
-|-------9------------------------------------------------------------------|-
-|-------7------------------------------------------------------------------|-
-|--------------------------------------------------------------------------|-
Ojciec Bog wie gdzie martenowski stawial piec

-|--------------------------------------------------------------------------|-
-|--------8-----------------------3-----3-----------------------------------|-
-|--------9----------------9------2--2-----2--------------------------------|-
-|--------7----------------7------0-----------------------------------------|-
-|--------7----------------7------------------------------------------------|-
-|--------------------------------------------------------------------------|-
Mnie paznokiec z palca zszedl

-|--------------------------------------------------------------------------|-
-|--------------------------------------------------------------------------|-
-|--------9-----------------------------------------------------------------|-
-|--------9-----------------------------------------------------------------|-
-|--------7-----------------------------------------------------------------|-
-|--------------------------------------------------------------------------|-
Z gryfu zostal wior gralem milion roznych bzdur

-|--------------------------------------------------------------------------|-
-|-----8-----------------3-----3--------------------------------------------|-
-|-----9-----------------2--2-----2-----------------------------------------|-
-|-----7-----------------0--------------------------------------------------|-
-|-----7-----7--7-----------------------------------------------------------|-
-|--------------------------------------------------------------------------|-
I poznalem co to sex

-|--------------------------------------------------------------------------|-
-|--------------------------------------------------------------------------|-
-|-------9------------------------------------------------------------------|-
-|-------9------------------------------------------------------------------|-
-|-------7------------------------------------------------------------------|-
-|--------------------------------------------------------------------------|-
Pocztowkowy szal kazdy z nas ich piecset mial

-|--------------------------------------------------------------------------|-
-|--------8-----------------3-----3-----------------------------------------|-
-|--------9-----------------2--2-----2--------------------------------------|-
-|--------7-----------------0-----------------------------------------------|-
-|--------7-----------------------------------------------------------------|-
-|--------------------------------------------------------------------------|-
Zamiast nowej pary jeans

-|--------------------------------------------------------------------------|-
-|-----------------------------------------------------8-----8--------------|-
-|------9----------------------------------------------9-----9----9---------|-
-|------9----------------------------------------------7-----7----9---------|-
-|------7----------------------------------------------7-----7----7---------|-
-|----------------------------------------------------------------7---------|-
A w sobotnia noc byl luksemburg, chata ,szklo jakze sie chcialo zyc

-|--------------------------------------------------------------------------|-
-|--------------------------------------------------------------------------|-
-|5--------------------------7-----------------7---------------------5------|-
-|5--------------------------7-----------------5---------------------5------|-
-|3--------------------------5-----------------5---------------------3--2---|-
-|--------------------------------------------------------------------------|-
Bylo nas trzech w kazdym z nas inna krew ale jeden przyswiecal nam cel

-|--------------------------------------------------------------------------|-
-|--------------------------------------------------------------------------|-
-|--------------------------------------5----------------------5------------|-
-|7--------------------3----------------5----------------------5------------|-
-|7--------------------3----------------3----------------------3------------|-
-|5--------------------1----------------------------------------------------|-
Za kilka lat miec u stop caly swiat wszystkiego w brod

-|--------------------------------------------------------------------------|-
-|--------------------------------------------------------------------------|-
-|5---------------7---------------------7---------------------5-------------|-
-|5---------------7---------------------5---------------------5-------------|-
-|3---------------5---------------------5---------------------3--2----------|-
-|--------------------------------------------------------------------------|-
Alpagi lyk i dyskusje po swit niecierpliwy w nas ciskal sie duch

-|--------------------------------------------------------------------------|-
-|--------------------------------------------------------------------------|-
-|-5----------------------5--------------5---------------5------------------|-
-|-5----------------------3--------------5---------------5------------------|-
-|-3----------------------3--------------3----------------------------------|-
-|---------------------------------------3----------------------------------|-
Ktos dostal w nos to poplakal sie ktos cos dzialo sie

-|--------------------------------------------------------------------------|-
-|-17--17--15--15^17--20--16^15--12-13--12h13p12----------------------------|-
-|------------------------------------------------14-16--15v--14\12-14v-----|-
-|--------------------------------------------------------------------------|-
-|--------------------------------------------------------------------------|-
-|--------------------------------------------------------------------------|-

-|--------------------------------------------------------------------------|-
-|--------------------------------------------------------------------------|-
-|14-12------12--11v-----11-12-11-------------------------------------------|-
-|-------14------------------------12--9------------------------------------|-
-|--------------------------------------------------------------------------|-
-|--------------------------------------------------------------------------|-

-|--------------------------------------------------------------------------|-
-|--------------------------------------------------------------------------|-
-|------9-------------------------------------------------------------------|-
-|------9-------------------------------------------------------------------|-
-|------7-------------------------------------------------------------------|-
-|--------------------------------------------------------------------------|-
Poroznila nas - za jej Poli Raksy twarz

-|--------------------------------------------------------------------------|-
-|-------8-------------------17^15--12--16^15--12--15--12-------------------|-
-|-------9------------------------------------------------------------------|-
-|-------7------------------------------------------------------------------|-
-|-------7------------------------------------------------------------------|-
-|--------------------------------------------------------------------------|-
Kazdy by sie zabic dal

-|--------------------------------------------------------------------------|-
-|--------------------------------------------------------------------------|-
-|--------9-----------------------------------------------------------------|-
-|--------9-----------------------------------------------------------------|-
-|--------7-----------------------------------------------------------------|-
-|--------------------------------------------------------------------------|-
W pewna letnia noc gdzies na dach wynioslem koc

-|--------------------------17-17-17-17-17-15-------------------------------|-
-|-----8--------------------------------------------------------------------|-
-|-----9-----------------------------------------------9--------------------|-
-|-----7-----------------------------------------------9--------------------|-
-|-----7-----------------------------------------------7--------------------|-
-|--------------------------------------------------------------------------|-
I dostalem to,com chcial Powiedziala mi ze klopoty

-|---------------------------------17-15------------------------------------|-
-|---------------8-----------------------17-15^16^15------------------------|-
-|---------------9----------------------------------------------------------|-
-|---------------7----------------------------------------------------------|-
-|---------------7----------------------------------------------------------|-
-|--------------------------------------------------------------------------|-
moga byc Ja jej - ze egzamin mam

-|--------------------------------------------------------------------------|-
-|----------------------------------------------8---------------------------|-
-|-----9----------------------------------------9----------9----------------|-
-|-----9----------------------------------------7----------9----------------|-
-|-----7----------------------------------------7----------7----------------|-
-|--------------------------------------------------------------------------|-
Odkrecila gaz nie zapukal nikt na czas Znow jak pies - bylem sam

----------------------------------------------------------------------------|-
----------------------------------------------------------------------------|-
-5----------------------7-----------------7-----------------------5---------|-
-5----------------------7-----------------5-----------------------5---------|-
-3----------------------5-----------------5-----------------------3--2------|-
----------------------------------------------------------------------------|-
Stu roznych rol czym ugasic moj bol nauczylo mnie zycie jak nikt

-|-----------------------------------------------------------8-10^11^10-8-10v-
-|---------------------------------------------------------10-----------------
-|------------------------------------------5-------------9-------------------
-|--7----------------------3----------------5-----------10--------------------
-|--7----------------------3----------------3---------------------------------
-|--5----------------------1--------------------------------------------------
W wyrku na wznak przechlapalem swoj czas najlepszy czas

-|----------------------------------------------------------------------------
-|----------------------------------------------------------------------------
-|-5-------------------------7--------------------7-----------------------5---
-|-5-------------------------7--------------------5-----------------------5---
-|-3-------------------------5--------------------5-----------------------3-2-
-|----------------------------------------------------------------------------
W knajpie dla braw klezmer kazal mi grac takie rzeczy za jeszcze mi wstyd

-|------------------------------------------------17-15-15/17-15--12-13-----|-
-|---------------------------------------------17-----------------------13v-|-
-|-------------------------------5------------------------------------------|-
-|7------------------3-----------5------------------------------------------|-
-|7------------------3-----------3------------------------------------------|-
-|5------------------1------------------------------------------------------|-
Pewnego dnia zrozumialem ze ja nie powiem nic

-|--------------------------------------------------------------------------|-
-|--------------------------------------------------------------------------|-
-|-5-------------------7-----------------7------------------------5---------|-
-|-5-------------------7-----------------5------------------------5---------|-
-|-3-------------------5-----------------5------------------------3-2-------|-
-|--------------------------------------------------------------------------|-
Sluchaj mnie tam pokonalem sie sam oto wysnil sie wielki moj sen

-|--------------------------------------------------------------------------|-
-|--------------------------------------------------------------------------|-
-|--------------------------------------------------------------------------|-
-|7---------------------3---------------------------------------------------|-
-|7---------------------3---------------------------------------------------|-
-|5---------------------1---------------------------------------------------|-
Tysieczny tlum spija slowa z mych ust.

-|----------------------------------20--------------------------------------|-
-|--------------------------------------------------------------------------|-
-|-5------------------------------------17-14-17----------------------------|-
-|-5---------------------------17-------------------------------------------|-
-|-3-----------------15--15-15----------------------------------------------|-
-|-3-----------15-17-----15-------------------------------------------------|-
Kochaja mnie

-|--------------------------------------------------------------------------|-
-|--------------------------------------------------------------------------|-
-|-5-----------------7-----------------------7--------------------------5---|-
-|-5-----------------7-----------------------5--------------------------5---|-
-|-3-----------------5-----------------------5--------------------------3-2-|-
-|--------------------------------------------------------------------------|-
W hotelu fan mowi:"Na tasmie mam, to jak w gardlach im rodzi sie spiew"

-|--------------------------------------------------------------------------|-
-|------------------------------------------------------0-0-1--0-0-5--------|-
-|-----------------------------------5------------------0-0-0--0-0-5--------|-
-|7--------------------3-------------5------------------2-2-2--2-2-5--------|-
-|7--------------------3-------------3------------------2-2-3--2-2-3--------|-
-|5--------------------1----------------------------------------------------|-
Otwieram drzwi i nie mowie juz nic do czterech scian



W dalszych wersach po pierwszym refrenie oprocz gitary grajacej
kluczowe akordy wystepuje jeszcze jedna gitara, ktora gra akord C-dur
w mniej wiecej takim porzadku:

-|----------0--------------0----|-
-|----1--------------1----------|-
-|-------0--------------0-------|-
-|--2-------------2-------------|-
-|------------------------------|-
-|------------------------------|-


dodaj akordy


2
fatalny
0
słaby
0
przeciętny
1
niczego sobie
1
wartościowy
0
bardzo dobry
4
wyśmienity
wartościowy 8 głosów
twoja ocena:

Dodaj komentarz anonimowo lub zaloguj się
 
ale debi ale debil deblu debile atakują to ja na msp Martina11ol
ale debi ale debil deblu debile atakują to ja na msp Martina11ol 12 grudnia 2016, 18:41
ale głupki tabulatura bleeeeeeeee i tak jak mnie zgłoszisz zgłaszasz to i tak nic ja znowu to napisze debile !!!!!!!!!!!!! XDXDXD yea
rss
31 929 wyświetleń
przysłano: 27 grudnia 2008

Inne interpretacje tego utworu

Perfect

Perfect jest polską grupą rockową, założoną w 1977 roku przez Wojciecha Morawskiego, Zdzisława Zawadzkiego oraz Pawła Tabakę, jako Perfect…

Strona korzysta z plików cookie w celu realizacji usług zgodnie z Polityką prywatności.
Możesz określić warunki przechowywania lub dostępu do cookie w Twojej przeglądarce.

Zgłoś obraźliwą treść

Uzasadnij swoje zgłoszenie.

wpisz wiadomość


lub tradycyjnie
login lub email
hasło