pełny ekran

Kołysanka dla nieznajomej – Perfect

tabulatura

 

  cz.1 : zw.

→  - ślizg
^  - dostawienie palca na tym samym dźwięku (nie długo postaram się dodać filmik jak to grać)

E1|----0--3→5→3------0--3→5→3--0--1--1--1--1--3→6--6--5--3--1--1--1-------------| 
H2|-1--1--3→5→3---1--1--3→5→3--0--1--1--1--1--3→6--6--6--3--1--1--1-------------|
G3|-0--0----------0--0------------2--3--3--2--2→5--5--5-----3--2--0-------------|
D4|-------------------------------3--3--3--3-------------------------0^2--0^2^0-|
A5|-3-------------0---------------3--3--3--3------------------------------------|
E6|-----------------------------------------------------------------------------|
----------------------dddgfgff--fg" ----------------------------------------
          C                  a                     F
- -0--X--0--0--X--0-|--0--X--0--0--X--0-|--1--X--1--1--X--1--1---X--1--1----1-------------|
--1--X--1--1--X--1-|--1--X--1--1--X--1-|--1--X--1--1--X--1--1---X--1--1----1-------------|
--0--X--0--0--X--0-|--2--X--2--2--X--2-|--2--X--2--2--X--0--0^2-X--2--0^2--0-------------|
--2--X--2--2--X--0-|--2--X--2--2--X--2-|--3--X--3--3--X--3--3---X--3----------0^2--0^2^0-|
--3--X--3--3--X--0-|--0--X--0--0--X--0-|--3--X--3--3--X--3--3---X--3---------------------|
-----X--------X----|-----X--------X----|-----X--------X---------X------------------------|
  C    a
----|----|----X--------X----|--1--1-X-X--1--0--1-|--0--------0-----------|
----|----|----X--------X----|--1--1-X-X--1--1--1-|-----1--------1--------|
----|----|----X--------X----|--2--2-X-X--2--0--2-|--------2--------2--0--|
----|----|--2-X-0^2--2-X--2-|--3--3-X-X--3--2--3-|-----------------------|
----|----|--2-X-2----2-X--2-|--3--3-X-X--3--3--3-|-----------------------|
----|----|----X--------X----|-------X-X----------|-----------------------|

-----3--X--0--X--0--|--1--X--1--1--X--1--1--X--1--|--3--3--X--0--|--X--0--0--X-0-|(TU POWTARZAMY)
-----3--X--1--X--1--|--1--X--1--1--X--1--1--X--1--|--3--3--X--1--|--X--1--1--X-1-|
-----0--X--2--X--2--|--2--X--2--2--X--0--2--X--2--|--0--0--X--0--|--X--0--0--X-0-|
-----0--X--2--X--2--|--3--X--3--3--X--3--3--X--3--|--0--0--X--2--|--X--2--2--X-0-|
-----2--X--0--X--0--|--3--X--3--3--X--3--3--X--3--|--2--2--X--3--|--X--3--3--X-0-|
--3-----X-----X-----|-----X--------X--------X-----|--3--3--X-----|--X--------X---|
REF.
--0--1--3---------------X-0-X--0--0--3------------3--1--0-X--0--1--3-X--3--3-X--3-|---X--------X---|-1--0--------0----------|
--1--0--1--1^3^1--0--3--X-1-X--1--1--1--1^3^1--0--------1-X--1--0--1-X--1--1-X--1-|---X--------X---|-1-----1--------1-------|(NIE DOKOŃCZONY, NIEDŁUGO DOKOŃCZE)
--0--0--0---------0--0--X-0-X--0--0--0---------0--------0-X--0--0--0-X--0--0-X--0-|---X--------X---|-2-----------------2--0-|
--2--0--2---------------X-2-X--2--0--2------------------2-X--2--0--2-X--2--2-X--2-|-2-X-0^2--2-X-2-|-3--------3-------------|
--3---------------2--2--X-3-X--3---------------2--------3-X--3-------X--0--0-X--0-|-2-X-2----2-X-2-|-3----------------------|
------------------------X---X-----------------------------X----------X-------X----|---X--------X---|------------------------|
dodaj akordy


1
fatalny
3
słaby
0
przeciętny
1
niczego sobie
0
wartościowy
1
bardzo dobry
0
wyśmienity
przeciętny 6 głosów
twoja ocena:

Dodaj komentarz anonimowo lub zaloguj się
 
15 768 wyświetleń
przysłano: 16 maja 2011

Inne interpretacje tego utworu

Perfect

Perfect jest polską grupą rockową, założoną w 1977 roku przez Wojciecha Morawskiego, Zdzisława Zawadzkiego oraz Pawła Tabakę, jako Perfect…

Strona korzysta z plików cookie w celu realizacji usług zgodnie z Polityką prywatności.
Możesz określić warunki przechowywania lub dostępu do cookie w Twojej przeglądarce.

Zgłoś obraźliwą treść

Uzasadnij swoje zgłoszenie.

wpisz wiadomość


lub tradycyjnie
login lub email
hasło