Piosenki Religijne

W naszej tradycji powstało wiele popularnych piosenek religijnych, nie będacych pieśniami kościelnymi ani obrzędowymi. Portal kulturalny…

pełny ekran dodaj teledysk

Nie Bój Się, Wypłyń Na Głębię – piosenki religijne

tekst piosenki chwyty na gitarę tabulatura

(G A) D A
Nie bój się wypłyń na głębie
G e A
Jest przy Tobie Chrystus


E||--------------------||--------------------|---------------------|---------------------|
B||--------------------||--------------------|---------------------|---------------------|
G||--------------------||*-------------------|-----------0----0----|---------------------|
D||----------0----2----||*--4----------------|------4--------------|--4----2--2----------|
A||--------------------||--------------------|---------------------|---------------------|
E||--------------------||--------------------|---------------------|---------------------|


----------|-------------------|---------------------|-------------------|-------------------|
----------|-------------------|---------------------|-------------------|-------------------|
----------|-------------------|-----------0---------|-------------------|------------------*|
----------|--0----------------|------0---------4----|--0----2--2--------|---------0---2----*|
----------|-------------------|---------------------|-------------------|-------------------|
----------|-------------------|---------------------|-------------------|-------------------|

-------------------||
-------------------||
-------------------||
--0----------------||
-------------------||
-------------------||
dodaj akordy


0
fatalny
0
słaby
0
przeciętny
0
niczego sobie
0
wartościowy
0
bardzo dobry
1
wyśmienity
wyśmienity 1 głos
twoja ocena:


Dodaj komentarz anonimowo lub zaloguj się
 

Wpisz kod zabezpieczający:


Wraz z komentarzem będzie zapisany twój adres IP.
Obraźliwe komentarze będą usuwane.
+++
+++ 27 lipca 2006, 21:02
uwielbiam ją śpiewać.jest bardzo ładna.Więc nie bójmy się, wypłyńmy na głębie bo jest przy nas Chrystus.
szym
szym 24 stycznia 2007, 20:59
fajjja
jvbyu hhhhuh76v fg bgbh h njbyjnhg[hyhbuig

ok sory
spec
spec 17 lutego 2007, 10:51
dobre ((((((((((;0000000000000000000000;;0;0;0;0
MARTA GRUCA
MARTA GRUCA 17 lutego 2007, 16:58
chwyty w 3 tonacjach :
C FG F G
D GA G A
E AH7 A H7
TO TYLE :)
pati 25 lutego 2007, 15:52
taby mi coś nie pasują w trzecim takcie (?) powinno być
G -------------0----|
D ---4---4---------|

ale tak to fajnie :D
lol
lol 27 lutego 2007, 14:24
mój brat to pieknnie gra ehhhh szkoda ze go nie slyszycie
tomoromo
tomoromo 9 kwietnia 2007, 19:25
to ma byc tekst piosenki?? to chyba jakas pomyklka
lukajsz
lukajsz 13 maja 2007, 21:35
sam jestes pomylka. nie rozumiesz chyba kanonu.
Pinia 29 pazdziernika 2007, 19:28
Sorki ale dopiero się uczę... jaki ma być tu rytm??
aniulkaaa96 14 czerwca 2008, 10:05
przeciez to caął piosenka jest!!!

:/

ty tomoromo wź sie ogarnij!!!

Łukajsz ma racjee!:)
Tymbark 29 marca 2009, 15:29
Jakie ma być bicie do akordów ; /?
Sylwuśkaa;) 29 maja 2010, 18:48
Jakie bicie do tej piosenki? ;]
rss
18 367 wyświetleń

Strona korzysta z plików cookie w celu realizacji usług zgodnie z Polityką prywatności.
Możesz określić warunki przechowywania lub dostępu do cookie w Twojej przeglądarce.

Zgłoś obraźliwą treść

Uzasadnij swoje zgłoszenie.

wpisz wiadomość


lub tradycyjnie
login lub email
hasło
współpraca