Pójdźmy wszyscy do stajenki

Kolędy

tekst utworu chwyty na gitarę tabulatura

Pójdźmy wszyscy do stajenki

 

     G
1.Pójdźmy wszyscy do stajenki,
     G
do Jezusa i Panienki
  a        D    G         e
Powitajmy, Maleńkiego
   a         D      G
I Maryję Matkę jego.
   a      D     G       e
Powitajmy Maleńkiego
  a     D  C       G
I Maryję Matkę jego.

 

2. Witaj, Jezu ukochany,
Od Patryjarchów czekany,
Od Proroków ogłoszony,
Od narodów upragniony.

3. Witaj, Dziecinko w żłobie,
Wyznajemy Boga w Tobie
Coś się narodził tej nocy
Byś nas wyrwał z czarta mocy.

4. Witaj Jezu nam zjawiony:
Witaj dwakroć narodzony,
Raz z ojca przed wieków wiekiem,
A teraz z matki człowiekiem

5. Któż to słyszał takie dziwy?
Tyś człowiek i Bóg prawdziwy,
Ty łączysz w boskiej osobie
Dwie natury różne sobie

6. O, szczęśliwi pastuszkowie,
Któż radość waszą wypowie?
Czego ojcowie żądali,
Byście pierwsi oglądali.

7. O Jezu nasze kochanie,
Czemu nad niebios mieszkanie
Przekłądasz nędzę, ubóstwo,
I wyniszczesz swoje Bóśtwo?

 

(2 pierwsze wersy na zmianę 2 palce na strunach A i E i na strunach D i A przy akordzie G-dur, podobnie jak whisky dżemu)

 

Pójdźmy wszyscy do stajenki do Jezusa i Panienki 

E1---------------3-7-3-------------3-7-3----------------
H2--3-5-3-5-3---------3-5-3-5-3-----------------------
G3----------------------------------------------------------
D4-----------------------------------------------------------
A5----------------------------------------------------------
E6----------------------------------------------------------
    Powitajmy Maleńkiego  i    Maryję Matkę jego
E1--8-7-5-5--7-5-3-3-----------------3-5-7-7------------
H2----------------------------7-7-5-7----------------------
G3-----------------------------------------------------------
D4-----------------------------------------------------------
A5----------------------------------------------------------
E6----------------------------------------------------------


Powitajmy Maleńkiego i Maryję Matkę jego

E1--8-7-5-5--7-5-3-3--------------3--3-3-3-------------
H2------------------------ 7-7-5-7-----------------------
G3--------------------------------------------------------
D4--------------------------------------------------------
A5--------------------------------------------------------
E6--------------------------------------------------------

 

Akordy występujące w tym utworze

G akord G
a akord Am
D akord D
e akord Em
C akord C

27
fatalny
10
słaby
3
przeciętny
6
niczego sobie
3
wartościowy
8
bardzo dobry
18
wyśmienity
niczego sobie– 75 głosów
5 osób ma ten tekst w ulubionych
twoja ocena:
Dodaj komentarz anonimowo lub zaloguj się
 
Alina :)
Alina :) 14 grudnia 2010, 17:55
Tabulatura się zgadza
mateusz bebek 20 grudnia 2012, 20:37
fajne :D pozdro dla wszystkich xd
Martyna
Martyna 22 grudnia 2013, 16:30
gram to ale w innej wersjii
szymek
szymek 23 grudnia 2014, 14:37
nie moge sie nauczyc!!!!!!!!!!!!!!!
Adrian.S
Adrian.S 30 listopada 2016, 13:56
Lubię to kolędę, będę ją śpiewał na konkursie kolend w szkole
Adrian 1f
Nicol Heryszek
Nicol Heryszek 16 grudnia 2016, 16:38
Bardzo fajne
nic
nic 4 stycznia 2017, 16:07
Co o tym myślisz? teksty.wywrota.pl/tekst-chwyty-tabulatura/38 133-koledy-pojdzmy-wszyscy-do-stajenki.html#loginForm
Jaaa XD
Jaaa XD 8 listopada 2017, 10:22
moze ktos napisac jakie bicie?
Gabi:-) :-)
Gabi:-) :-) 26 listopada 2017, 11:34
Nie wiadomo co się gra
daoshdhsja
daoshdhsja 24 grudnia 2017, 19:23
Rambo123
Jagósia Ł.:-)
Jagósia Ł.:-) 26 grudnia 2017, 08:58
To jest super kolęda.
rss
100 753 wyświetlenia
przysłano: 23 grudnia 2008

Inne interpretacje tego utworu

79 głosów 24 komentarze
Pójdźmy wszyscy do stajenki
41 głosów 7 komentarzy
Pójdźmy wszyscy do stajenki
29 głosów 3 komentarze
Pójdźmy wszyscy do stajenki
20 głosów 3 komentarze
Pójdźmy wszyscy do stajenki
16 głosów 3 komentarze
Pójdźmy wszyscy do stajenki
9 głosów 2 komentarze
pójdżmy wszyscy do stajenki
10 głosów 2 komentarze
Pójdźmy wszyscy do stajenki

Kolędy

Największy w polskim Internecie śpiewnik online na łamach portalu kulturalnego Wywrota.pl prezentuje Wam teksty kolęd, zarówno tych…

Teledysk


Strona korzysta z plików cookie w celu realizacji usług zgodnie z Polityką prywatności.
Możesz określić warunki przechowywania lub dostępu do cookie w Twojej przeglądarce.

Zgłoś obraźliwą treść

Uzasadnij swoje zgłoszenie.

wpisz wiadomość


lub tradycyjnie
login lub email
hasło