pełny ekran

Ja do Ciebie – happysad

tekst utworu chwyty na gitarę tabulatura

Nieproporcjonalnie wiele rzeczy nas dotyczy, które mało nas obchodzą G a C D
Chyba więcej szczęścia mają nie co ci się rodzą a ci co umierają   G a C D
Tamci wynaleźli bomby Ci niezrozumiałe akty prawne G a C D    

Trudno to wszystko zrozumieć trudno w to wszystko uwierzyć naprawdę G a C D


To mówię ja do Ciebie... a C D

Ja do Ciebie     a C D

Ja do Ciebie     a C D

Wokół tyle jest przestrzeni co z tego kiedy ludzi jest za wiele        G a C D
Jednoznacznie trudno orzec którzy to wrogowie którzy przyjaciele   G a C D
Jedni wciąż się uśmiechają jnni wypytują o rzeczy mało ważne     G a C D
Trudno to wszystko zrozumieć trudno w to wszystko uwierzyć naprawdę    G a C D

 

To mówię ja do Ciebie...   a C D

 

Kiedyś kupię nóż G e

I powyżynam wszystkich wkoło C D
Kupię nóż
Zostawię tylko dwoje


Tylko ja i ty....

 

TAB OPRACOWANY PRZEZ
intro
(grane po każdej zwrotce)
E-----------------------------------------
H-----------------------------------------
G-----------------------------------------
D-----------------------2-----------------
A-------3-0-0---0-0-3-3---5-3-2----
E--3--3-------------------------5--------

 

E------------------------------------------
H------------------------------------------
G-----------------------------------------
D------------------------------2----------
A---------3-0-0---0-0-3-3----5-3-2-
E--3--3---------------------------------3 przejście na akord G

 

Zwrotka;
Nieproporcjonalne.... GaCD

To mówię ja......... eCD

Kiedyś kupię nóż...... GeCD

Tylko ja i ty........ GeGeGeCD


następnie G e C D


tu zaczyna się solo:

E-------------------------------------------------------------
H--3-3-3-3-3---3-3-3-5-5-5-5----5-5-5-7-7-7-7---
G-------------------------------------------------------------
D-------------------------------------------------------------
A-------------------------------------------------------------
E-------------------------------------------------------------

 

E----------------------------------------------
H--7-7-7--5-5-5-5----5-5-5-3-3-3-3---
G-----------------------------------------------
D-----------------------------------------------
A-----------------------------------------------
E-----------------------------------------------

 

E--------------------------------------------------------------------
H--3-3-3--5-5-5-5---5-5-5--7-7-7-7----7-7-7-5-5-5-5--
G--------------------------------------------------------------------
D--------------------------------------------------------------------
A--------------------------------------------------------------------
E--------------------------------------------------------------------

 

E-------------------------------------------------------------------------------------------
H--5-5-5-7-7-7-7-7-7-7-7-8-8-8-8-8-8-8-8-10-10-10-10-10-10-10-10--
G-------------------------------------------------------------------------------------------
D-------------------------------------------------------------------------------------------
A-------------------------------------------------------------------------------------------
E-------------------------------------------------------------------------------------------

 

E--------------------------------------------------------------------------------------------------------
H--8-8-8-8-8-8-8-8-7-7-7-7-7-7-7-7-8-8-8-8-8-8-8-8-10-10-10-10-10-10-10-10-
G--------------------------------------------------------------------------------------------------------
D--------------------------------------------------------------------------------------------------------
A--------------------------------------------------------------------------------------------------------
E--------------------------------------------------------------------------------------------------------

 

E-------------------
H--8-8-8-10-12-
G-------------------
D-------------------
A-------------------
E-------------------

 

solo:

E------------------------------------------------------------------15-15-15-14--15-14---------------------------------
H--13-13-13-12--12-12-12-10-10-10-12--12-12-12---------------------------15-12-12-12-10--10-10-
G------------------------------------------------------------------------------------------------------------------------------
D------------------------------------------------------------------------------------------------------------------------------ 4 razy
A-------------------------------------------------------------------------------------------------------------------------------
E-------------------------------------------------------------------------------------------------------------------------------

 

E--17-17-17-15--15-15-15------------------------|----------------------------------------------------------------------------
H---------------------------------13-13-13-12--12-12-12--|-15-15-15-13--13-13-13--17-17-17-15--15-15-15-
G-----------------------------------------------|--------------------------------------------------------------------------------------
D-----------------------------------------------|-------------------------------------------------------------------------------4 razy
A-----------------------------------------------|--------------------------------------------------------------------------------------
E-----------------------------------------------|--------------------------------------------------------------------------------------

przy 4 razie końcówka następująco (od kresek pionowych)

|---------------------------------------------------------
|-15-13-12-13-12-10-7----8-10-----------------
|---------------------------------------------------------
|---------------------------------------------------------
|---------------------------------------------------------
|---------------------------------------------------------

koniec:

E--15-15-15-14-14-14-12-14--15-15-15-14-14-14-12-14--
H----------------------------------------------------------------------------
G----------------------------------------------------------------------------
D----------------------------------------------------------------------------
A----------------------------------------------------------------------------
E----------------------------------------------------------------------------

 

E-------------------------------------------------------------------------    x4
H--13-13-13-12-12-12-12-15-15-15-13-13-13-12-13-----
G--------------------------------------------------------------------------
D--------------------------------------------------------------------------
A--------------------------------------------------------------------------
E--------------------------------------------------------------------------

 

za czwartym razem zakończenie nastepujące

-------------------------------------------------------------------------
--13-13-13-12--12-12-12--15-13-13--12-12-10-8-10-8
-------------------------------------------------------------------------
-------------------------------------------------------------------------
-------------------------------------------------------------------------
-------------------------------------------------------------------------

dodaj akordy


1
fatalny
0
słaby
0
przeciętny
0
niczego sobie
0
wartościowy
1
bardzo dobry
3
wyśmienity
bardzo dobry 5 głosów
twoja ocena:

Dodaj komentarz anonimowo lub zaloguj się
 
HappyKrystian
HappyKrystian 22 marca 2014, 16:38
Świetnie się gra! :D
rss
8 866 wyświetleń
przysłano: 29 pazdziernika 2011

Inne interpretacje tego utworu

HappySad

happysad – zespół rockowy założony w 2001 roku w miejscowości Skarżysko-Kamienna przez muzyków, którzy już wcześniej grali razem. Od 1995 …

Strona korzysta z plików cookie w celu realizacji usług zgodnie z Polityką prywatności.
Możesz określić warunki przechowywania lub dostępu do cookie w Twojej przeglądarce.

Zgłoś obraźliwą treść

Uzasadnij swoje zgłoszenie.

wpisz wiadomość


lub tradycyjnie
login lub email
hasło