Leonard Cohen

Leonard Cohen (ur. 21 września 1934 w Montrealu) – kanadyjski poeta, pisarz i piosenkarz tworzący w stylu piosenki autorskiej w gatunku folk…

pełny ekran dodaj teledysk

Hallelujah – Leonard Cohen

tekst piosenki chwyty na gitarę tabulatura

Poniżej rozpisałem wersje instrumentalną tej piosenki, ale pierwszą gitare można
zastąpić wokalem :p


C............a...........C.............a...........C*............a...........
gitara1:
e|-------------------------|-------------------------|-------------------------|
H|-------------------------|-------------------------|-------------------------|
G|-------------------------|-------------------------|-------------------------|
D|-------------------------|-------------------------|-5---5-5---5-7-7-7~------|
A|-------------------------|-------------------------|-------------------------|
E|-------------------------|-----------------------3-|-----------------------3-|
-| gitara2:
e|-------------------------|-------------------------|-------------------------|
H|-------5-----------1-----|-------5-----------1-----|-------5-----------1-----|
G|-----5---5-------2---2---|-----5---5-------2---2---|-----5---5-------2---2---|
D|---5-------5---2-------2-|---5-------5---2-------2-|---5-------5---2-------2-|
A|-3-----------0-----------|-3-----------0-----------|-3-----------0-----------|
E|-------------------------|-------------------------|-------------------------|

 

...C...........a............F............G...........C.............G............
e|-------------------------|-------------------------|-------------------------|
H|-------------------------|-------------------------|-------------------------|
G|-------------------------|-------------------------|-------------------------|
D|-5---5-5-5-5-7---7-7---7-|-7---7-7---7-7---5-5-----|-5-5~~-------------------|
A|-------------------------|---------------------8---|-------------------------|
E|-------------------------|-------------------------|-----------------------3-|
-|
e|-------------------------|-------------------------|-------------------------|
H|-------5-----------1-----|-------------------------|-------5-----------------|
G|-----5---5-------2---2---|-------2-----------4-----|-----5---5---------4-----|
D|---5-------5---2-------2-|-----3---3-------5---5---|---5-------5-----5---5---|
A|-3-----------0-----------|---3-------3---5-------5-|-3-------------5-------5-|
E|-------------------------|-1-----------3-----------|-------------3-----------|

 

...C..........F......G......C..........F.......G......G...........e............
e|-------------------------|-------------------------|-------------------------|
H|-------------------------|-------------------------|-------------5---5---5\3-|
G|-------------------4-----|-5-5-5-----5-5-5-7~----7-|-7---7-7---7-------------|
D|-5---5-5---5-7---7-------|-------------------------|-------------------------|
A|-----------------------3-|-------------------------|-------------------------|
E|-------------------------|-------------------------|-------------------------|
-|
e|-------------------------|-------------------------|-------------------------|
H|-------5-----------------|-------1-----------------|-------------------------|
G|-----5---5---------------|-----2---2---------------|-------4-----------0-----|
D|---5-------5-----3-----5-|---2-------2-----3-----5-|-----5---5-------2---2---|
A|-3-------------3-----5---|-0-------------3-----5---|---5-------5---2-------2-|
E|-------------1-----3-----|-------------1-----3-----|-3-----------0-----------|

 

...C.......................F.........................a..........................
e|-------------------------|-------------------------|-------------------------|
H|-3-----1~----------------|-------------------------|-------------------------|
G|-------------------------|-------------------------|-------------------------|
D|-----------------------5-|-7~----7~----------7---5-|-----------------------5-|
A|-------------------7-----|-------------------------|-7~----7~----------7-----|
E|-------------------------|-------------------------|-------------------------|
-|
e|-------------------------|-------------------------|-------------------------|
H|-------5-----------5-----|-------------------------|-------1-----------1-----|
G|-----5---5-------5---5---|-------2-----------2-----|-----2---2-------2---2---|
D|---5-------5---5-------5-|-----3---3-------3---3---|---2-------2---2-------2-|
A|-3-----------3-----------|---3-------3---3-------3-|-0-----------0-----------|
E|-------------------------|-1-----------1-----------|-------------------------|

 

...F........................C...........G.............C**.........G.............
e|-------------------------|-------------------------|-------------------------|
H|-------------------------|-------------------------|-------------------------|
G|-------------------------|-------------------------|-------------------------|
D|-7~----7~----------7---5-|-------------------------|-------------------------|

A|-------------------------|-7--------8-7-5------3---|-3~----------------------|
E|-------------------------|-------------------------|-----------------------3-|
-|
e|-------------------------|-------------------------|-------------------------|
H|-------------------------|-------5-----------------|-------5-----------------|
G|-------2-----------2-----|-----5---5---------4-----|-----5---5---------4-----|
D|-----3---3-------3---3---|---5-------5-----5---5---|---5-------5-----5---5---|
A|---3-------3---3-------3-|-3-------------5-------5-|-3-------------5-------5-|
E|-1-----------1-----------|-------------3-----------|-------------3-----------|

 

Teraz powrót do miejsca oznaczonego "*" .
Ostatni refren jest powtarzany.
Pod koniec ostatniego refrenu (miejsce
oznaczone "**") jest tak:

 

e|-------------------------|---|
H|-------------------------|---|
G|-------------------------|-5-|
D|-------------------------|-5-|
A|-3~----------------------|-3-|
E|-------------------------|---|
-|
e|-------------------------|---|
H|-------5-----------------|-1-|
G|-----5---5---------4-----|-0-|
D|---5-------5-----5---5---|-2-|
A|-3-------------5-------5-|-3-|
E|-------------3-----------|-3-|

 

Tekst:

 

|C |a |C |a |
C......................a...........
I've heard there was a secret chord
.....C....................a...............
That David played, and it pleased the Lord
....F...........G...................C.......G.
But you don't really care for music, do you?
..C..............
It goes like this
...F.......G.........
The fourth, the fifth
...C.................F....G....
The minor fall, the major lift
...G...................e......C......
The baffled king composing Hallelujah

 

.....F...........a....
Hallelujah, Hallelujah

.....F...........C....G..c..G
Hallelujah, Hallelu-u-ujah

 

Your faith was strong but you needed proof
You saw her bathing on the roof
Her beauty in the moonlight overthrew you
She tied you to a kitchen chair
She broke your throne, and she cut your hair
And from your lips she drew the Hallelujah

 

Hallelujah, Hallelujah
Hallelujah, Hallelujah

 

Baby I have been here before
I know this room, I've walked this floor
I used to live alone before I knew you.
I've seen your flag on the marble arch
Love is not a victory march
It's a cold and it's a broken Hallelujah

 

Hallelujah, Hallelujah

Hallelujah, Hallelujah

 

There was a time when you let me know
What's really going on below
But now you never show it to me, do you?
And remember when I moved in you
The holy dove was moving too
And every breath we drew was Hallelujah

 

Hallelujah, Hallelujah
Hallelujah, Hallelujah

 

Maybe there’s a God above
But all I’ve ever learned from love
Was how to shoot at someone who outdrew you
It’s not a cry you can hear at night
It’s not somebody who has seen the light
It’s a cold and it’s a broken Hallelujah

 

Hallelujah, Hallelujah
Hallelujah, Hallelujah

 

You say I took the name in vain
I don't even know the name
But if I did, well really, what's it to you?
There's a blaze of light in every word
It doesn't matter which you heard
The holy or the broken Hallelujah

 

Hallelujah, Hallelujah
Hallelujah, Hallelujah

 

I did my best, it wasn't much
I couldn't feel, so I tried to touch
I've told the truth, I didn't come to fool you
And even though it all went wrong
I'll stand before the Lord of Song
With nothing on my tongue but Hallelujah

 

Hallelujah, Hallelujah
Hallelujah, Hallelujah

 

Hallelujah, Hallelujah
Hallelujah, Hallelujah

dodaj akordy


1
fatalny
2
słaby
0
przeciętny
1
niczego sobie
0
wartościowy
1
bardzo dobry
3
wyśmienity
wartościowy 8 głosów
twoja ocena:


Dodaj komentarz anonimowo lub zaloguj się
 

Wpisz kod zabezpieczający:


Wraz z komentarzem będzie zapisany twój adres IP.
Obraźliwe komentarze będą usuwane.
14 322 wyświetlenia
przysłano: 9 kwietnia 2012

Inne interpretacje tego utworu

rss

Strona korzysta z plików cookie w celu realizacji usług zgodnie z Polityką prywatności.
Możesz określić warunki przechowywania lub dostępu do cookie w Twojej przeglądarce.

Zgłoś obraźliwą treść

Uzasadnij swoje zgłoszenie.

wpisz wiadomość


lub tradycyjnie
login lub email
hasło
współpraca