pełny ekran

Przez Twe Oczy Zielone – Akcent

tekst utworu chwyty na gitarę tabulatura

płyta: -
słowa: Zenon Martyniuk
muzyka: Zenon Martyniuk, Mariusz Anikiej, Ryszard Warot, Artur Boroń, Artur Kirpsza

Akcent - Przez Twe Oczy Zielone

 

Opracowanie całego utworu by Jacob.

 

Bicie: DÓŁ, DÓŁ, GÓRA, GÓRA, DÓŁ, GÓRA (4/4)
Strój: EADGBE

 

Przygrywka 1:
E---------------------9--------------------13--11--9-------------------------9------9--11-----13-14-13-B----11----11--13-----13--11--13--9---------------13----11---11--13-----13---------9---------------
G-------10-------------------------------------------------10-------------------------------------------------
D----------------------------------------------------------------------------------------------------------------
A----------------------------------------------------------------------------------------------------------------
E-----------------------------------------------------------------------------------------------------------------

 

Zwrotka:
Odkąd zobaczyłem ciebie           |  b-moll   | dis-moll  |
Nie mogę jeść, nie mogę spać    | Gis-dur  | Cis-dur   |
Jak do tego doszło, nie wiem      |  b-moll   | dis-moll  |
Miłość o sobie dała znać             |  F-dur     |  b-moll    |
Co poradzić mogę na to              |  b-moll   | dis-moll  |
Że miłość przyszła właśnie dziś   | Gis-dur  | Cis-dur   |
Że w sercu mym jest lato             |  b-moll   | dis-moll  |
A w moich myślach jesteś ty        |  F-dur     |  b-moll    |

 

Refren: 
Przez twe oczy, te oczy zielone oszalałem         |  b-moll   | dis-moll |
Gwiazdy Chyba twym oczom oddały cały blask | Gis-dur  | Cis-dur  | F-dur |
A ja serce miłości spragnione ci oddałem          |  b-moll   | dis-moll |
Tak zakochać, zakochać się można tylko raz     |  F-dur    |  b-moll   |

 

Przygrywka 1:
E---------------------9--------------------13--11--9-------------------------9------9--11-----13-14-13-B----11----11--13-----13--11--13--9---------------13----11---11--13-----13---------9---------------
G-------10-------------------------------------------------10-------------------------------------------------
D----------------------------------------------------------------------------------------------------------------
A----------------------------------------------------------------------------------------------------------------
E-----------------------------------------------------------------------------------------------------------------

 

Zwrotka:
W mych ramionach cię ukryje     |  b-moll  | dis-moll |
U stóp Ci złoże cały świat           | Gis-dur | Cis-dur   |
Serce me dla ciebie bije             |  b-moll  | dis-moll  |
I czeka na twój mały znak          |  F-dur    |  b-moll    |
Jeden uśmiech twój wystarczy   |  b-moll  | dis-moll  |
I moje serce powie rytm             | Gis-dur | Cis-dur   |
O twą miłość będę walczył         |  b-moll  | dis-moll  |
O miłość walczyć to nie wstyd    |  F-dur   |  b-moll    |

 

Solo:
E----------------------------------------------------------------------------------------------------------------
B----13/11---11/9---9--------------------------------11-11-13---11h13p11--10-10---13-10-11------
G---------------------------8/10---8h10p8---6--------------------------------------------------------------
D----------------------------------------------------------------------------------------------------------------
A----------------------------------------------------------------------------------------------------------------
E----------------------------------------------------------------------------------------------------------------

 

Refren:
Przez twe oczy, te oczy zielone oszalałem          |  h-moll   |  e-moll  |
Gwiazdy Chyba twym oczom oddały cały blask  |  A-dur    |  D-dur   | Fis-dur |
A ja serce miłości spragnione ci oddałem           |  h-moll   |  e-dur   |
Tak zakochać, zakochać się można tylko raz      | Fis-dur  |  h-moll |
 
Przygrywka 2:
E------------------10------------------14--12--10-----------------------10------10--12-----14-15-14-
B---12---12--14----14-12-14-10----------------14----12---12--14-----14----------10--------------
G------11------------------------------------------------11--------------------------------------------------
D--------------------------------------------------------------------------------------------------------------
A--------------------------------------------------------------------------------------------------------------
E--------------------------------------------------------------------------------------------------------------

Akordy występujące w tym utworze

b dis Gis Cis F h e A D Fis akord b dis Gis Cis F  h e A D Fis

7
fatalny
1
słaby
0
przeciętny
1
niczego sobie
0
wartościowy
0
bardzo dobry
2
wyśmienity
słaby 11 głosów
twoja ocena:

Dodaj komentarz anonimowo lub zaloguj się
 
PRZESADA Z TYM?
PRZESADA Z TYM?
PRZESADA Z TYM? 6 grudnia 2016, 10:30
tabulatura aż na pudle gitary!!!!!!! to przesada jak tam .....o !!!! AKCENT
rss
13 907 wyświetleń
przysłano: 16 kwietnia 2016

Inne interpretacje tego utworu

Akcent

Jest kilku wykonawców o tej nazwie: 1. Polski zespół Akcent Historia zespołu: Zespół Akcent powstał w 1989 roku. Założyli go: Zenon…

Strona korzysta z plików cookie w celu realizacji usług zgodnie z Polityką prywatności.
Możesz określić warunki przechowywania lub dostępu do cookie w Twojej przeglądarce.

Zgłoś obraźliwą treść

Uzasadnij swoje zgłoszenie.

wpisz wiadomość


lub tradycyjnie
login lub email
hasło