Green Day

Green Day – amerykańska grupa grająca kalifornijski punk rock. Powstała z inicjatywy Billie’go Joe Armstronga i Mike'a Dirnt'a w 1987 roku…

pełny ekran dodaj teledysk

Boulevard of Broken Dreams – Green Day

tekst piosenki chwyty na gitarę

Fm Ab Eb Bb


Fm Ab
1. I walk a lonely road

Eb Bb
The only one that I have ever known

Fm Ab
Don't know were it goes

Eb Bb
But it's home to me and I walk alone


Fm Ab
I walk this empty street

Eb Bb
On the Boulevard of broken dreams

Fm Ab
Were the city sleeps

Eb Bb
And I'm the only one and I walk alone




Fm Ab Eb Bb Fm Ab Eb Bb
E--3/4--6/8\6--3--4---------3/4--6/8\6--3--4--
B---------------------------------------------
G---------------------------------------------
D---------------------------------------------
A---------------------------------------------
E---------------------------------------------
I walk alone I walk alone, I walk alone and I walk a-



Ref>.:

C# Ab Bb F
My shadows the only one that walks beside me

C# Ab Bb F
My shallow hearts the only thing that's beating

C# Ab Bb F
Sometimes I wish someone out there will find me

C# Ab C
'Till then I'll walk alone



Fm Ab Eb Bb (2x)
Ah..ah..


Fm Ab
2. I'm walking down the line

Eb Bb
That divides me somewhere in my mind

Fm Ab Eb
On the border line of the edge

Bb
And where I walk alone


Fm Ab
Read between the lines

Eb Bb
What's fucked up and everything's alright

Fm Ab Eb Bb
Check my vital signs to know I'm still alive


And I walk alone




Fm Ab Eb Bb Fm Ab Eb Bb
E---------------------------------------------
B--3/4--6/8\6--3--4---------3/4--6/8\6--3--4--
G---------------------------------------------
D---------------------------------------------
A---------------------------------------------
E---------------------------------------------
I walk alone I walk alone, I walk alone and I walk a-



Ref:

C# Ab Bb F
My shadows the only one that walks beside me

C# Ab Bb F
My shallow hearts the only thing that's beating

C# Ab Bb F
Sometimes I wish someone out there will find me

C# Ab C
'Till then I'll walk alone



Fm Ab Eb Bb (repeat 2x)
Ah..ah..

I walk alone and I walk a-



Fm Ab
3. I walk this empty street

Eb Bb
On the Boulevard of broken dreams

Fm Ab
Were the city sleeps

Eb Bb
And I'm the only one and I walk alone



Ref.:

C# Ab Bb F
My shadows the only one that walks beside me

C# Ab Bb F
My shallow hearts the only thing that's beating

C# Ab Bb F
Sometimes I wish someone out there will find me

C# Ab C
'Till then I'll walk alone



F C# Eb D Ab E
E--------------------------------------------------|
B--------------------------------------------------|
G--------------------------------------------------| (repeat 3x)
D--------------------------------------------------|
A----------4--4-4--6--6-6--5--5-5------------------|
E--1--1-1--------------------------4--4-4--0--0-0--|


F C# Eb D Ab E
E--------------------------------------------------|
B--------------------------------------------------|
G--------------------------------------------------|
D----------------------------------5-5--2-2--------|
A----------4--4-4--6--6-6--5--5-5--5-5--2-2--------|
E--1--1-1--------------------------4-4--0-0--------|
dodaj akordy


twoja ocena:


Dodaj komentarz anonimowo lub zaloguj się
 

Wpisz kod zabezpieczający:


Wraz z komentarzem będzie zapisany twój adres IP.
Obraźliwe komentarze będą usuwane.
2 554 wyświetlenia
przysłano: 29 czerwca 2007

Inne interpretacje tego utworu

rss

Strona korzysta z plików cookie w celu realizacji usług zgodnie z Polityką prywatności.
Możesz określić warunki przechowywania lub dostępu do cookie w Twojej przeglądarce.

Zgłoś obraźliwą treść

Uzasadnij swoje zgłoszenie.

wpisz wiadomość


lub tradycyjnie
login lub email
hasło
współpraca