Green Day

Green Day – amerykańska grupa grająca kalifornijski punk rock. Powstała z inicjatywy Billie’go Joe Armstronga i Mike'a Dirnt'a w 1987 roku…

pełny ekran dodaj teledysk

Holiday – Green Day

tekst piosenki tabulatura

intro:
e|-----------------------------
B|---9-----6-----13-----8------
G|--10-----6-----13-----8------
D|--10-x2--6-x2--13-x2--8-x2--- x4
A|--8------4-----11-----6------
E|-----------------------------

e|-----------------------------
B|-----------------------------
G|--10-----6----------8--------
D|--10-x2--6-x2-6-----8-x2-----
A|---8-----4----6-x2--6-------- x2
E|--------------4--------------

verse:
e|-----------------------------
B|-----------------------------
G|--10-----6----------8--------
D|--10-x2--6-x2-6-----8-x2-----
A|---8-----4----6-x2--6-------- x3
E|--------------4--------------

e|-----------------------------
B|-----------------------------
G|---5-5-5-5-5-5-5-5-5---------
D|---5-5-5-5-5-5-5-5-5---------
A|---3-3-3-3-3-3-3-3-3---------
E|-----------------------------

e|-----------------------------
B|-----------------------------
G|--10-----6----------8--------
D|--10-x2--6-x2-6-----8-x2-----
A|---8-----4----6-x2--6-------- x3
E|--------------4--------------

e|-----------------------------
B|-----------------------------
G|---5-5-5-5-5-5-5-5-5---------
D|---5-5-5-5-5-5-5-5-5---------
A|---3-3-3-3-3-3-3-3-3---------
E|-----------------------------

Chorus
e|-------------------------|---------------------------
B|-------------------------|---------------------------
G|-------6-----------8-----|-------6-------------5-----
D|-3-----6-x4--6-----8-x4--|-3-----6-x4---6------5-x5--
A|-3-x4--4-----6-x4--6-----|-3-x4--4------6-x4---3-----
E|-1-----------4-----------|-1------------4------------

Intro...
Verse...
Chorus...

Bridge:
e|--------------------|-------------------|
B|--------------------|-------------------|
G|---------6-3--8--5--|----------8--5--10-|
D|-33--66--6-3--8--5--|--33--66--8--5--10-| x2
A|-33--66--4-1--6--3--|--33--66--6--3--8--|
E|-11--44-------------|--11--44-----------|

Solo
e-----------------------------------8---8---|
B--6--6-6-8-9------------8-------6----6-----|
G-------------8-6-5--5-----9-5--------------|
D-------------------------------------------|
A-------------------------------------------|
E-------------------------------------------|


e-----------------------------8-12------13--|
B--6--6-6-8-9------------8------------------|
G-------------8-6-5--5----------------------|
D-------------------------------------------|
A-------------------------------------------|
E-------------------------------------------|

*******************************************************************************************************************************
____lub : G------------------------|--------------------------|
G--------------------------|------------------------| / D--------------------1---|----------------1-----3---|
D--------------------------|------------------------| / A----------------4-1---3-|-------------------3------|
A----------------4-1-6-3---|-----------------6---8--| / E-1-1--(3)-4-4-4---------|-1-1--(3)-4-4-4-----------|
E-1-1--(3)-4-4-4-----------|-1-1--(3)-4-4-4----8----| /

********************************************************************************************************************************

najpierw gra sam bas a pod koniec gramy:
e|---------------------------------------------------------------------
B|---------------------------------------------------------------------
G|---8--5--10---5-5-5-5-5-5-5-5-5-5-5-5-5-5-5-5------------------------
D|---8--5--10---5-5-5-5-5-5-5-5-5-5-5-5-5-5-5-5------------------------
A|---6--3--8----3-3-3-3-3-3-3-3-3-3-3-3-3-3-3-3------------------------
E|---------------------------------------------------------------------

chorus x2
intro...

Outro
e|-------------------------------------------------------
B|-------------------------------------------------------
G|--8---5---10~------------------------------------------
D|--8---5---10~------------------------------------------
A|--6---3---8-~------------------------------------------
E|------------------------------------------------------


"Holiday"

Say, hey!

Hear the sound of the falling rain
Coming down like an Armageddon flame (Hey!)
The shame
The ones who died without a name

Hear the dogs howling out of key
To a hymn called "Faith and Misery" (Hey!)
And bleed, the company lost the war today

I beg to dream and differ from the hollow lies
This is the dawning of the rest of our lives
On holiday

Hear the drum pounding out of time
Another protester has crossed the line (Hey!)
To find, the money's on the other side

Can I get another Amen? (Amen!)
There's a flag wrapped around a score of men (Hey!)
A gag, a plastic bag on a monument

I beg to dream and differ from the hollow lies
This is the dawning of the rest of our lives
On holiday

(Hey!)
(Say, hey!)

(3,4)

"The representative from California has the floor"

Sieg Heil to the president Gasman
Bombs away is your punishment
Pulverize the Eiffel towers
Who criticize your government
Bang bang goes the broken glass and
Kill all the fags that don't agree
Trials by fire, setting fire
Is not a way that's meant for me
Just cause, just cause, because we're outlaws yeah!

I beg to dream and differ from the hollow lies
This is the dawning of the rest of our lives
I beg to dream and differ from the hollow lies
This is the dawning of the rest of our lives

This is our lives on holiday
dodaj akordy


0
fatalny
0
słaby
0
przeciętny
0
niczego sobie
0
wartościowy
0
bardzo dobry
3
wyśmienity
wyśmienity 3 głosy
twoja ocena:


Dodaj komentarz anonimowo lub zaloguj się
 

Wpisz kod zabezpieczający:


Wraz z komentarzem będzie zapisany twój adres IP.
Obraźliwe komentarze będą usuwane.
1 859 wyświetleń
przysłano: 18 lipca 2007

Inne interpretacje tego utworu

rss

Strona korzysta z plików cookie w celu realizacji usług zgodnie z Polityką prywatności.
Możesz określić warunki przechowywania lub dostępu do cookie w Twojej przeglądarce.

Zgłoś obraźliwą treść

Uzasadnij swoje zgłoszenie.

wpisz wiadomość


lub tradycyjnie
login lub email
hasło
współpraca