pełny ekran dodaj teledysk

Kiedy umieram – Hunter

tekst utworu tabulatura

Kiedy rodzisz się nawet góry toną we krwi
Będąc dzieckiem pragnień nadzieją zabarwiasz złe sny
Bredząc trzy po trzy powiedziałeś, że Ty
Jesteś Władcą Snów - uwierzyli bez słów
Krok po kroku ich opętałeś...

Kat oszalał brodząc we krwi
Tak twój lud bezmyślnie pogrążał swój kraj
Wierząc ślepo w Ciebie szedł dalej próbując
Odnaleźć swój Raj
Bredząc trzy po trzy przypomniałeś, że Ty
Jesteś Władcą Snów - wierzyli bez słów
Poszli w ogień za tobą - zginęli przed!
Powiększając armię cieni

Umieram - gdy widzę jak błądzimy we mgle
Umieram - gdy czuję, że trwamy we śnie
Umieram - bo wiem, że Ty nie rozumiesz, że ja
Umieram - gdy widzę jak Ty...

Chciałeś dać swego Boga innym, choć tego nie chcieli
Żyli w zgodzie, spokoju - swojego Boga już mieli...
Bredząc trzy po trzy oznajmiłeś, że Ty
Dasz im Władcę Snów
Nie pojęli twych słów
Więc zginęły miliony - ich słowa brzmiały dziwnie
Ten sam Bóg nosił inne imię!

Ref. Umieram - gdy widzę jak błądzimy we mgle …

...Fanatyzm jest przekleństwem narodów
Kult jednostki, religijny, polityczny, nacjonalizm
Będą zawsze tym samym - czarną stroną człowieczeństwa
Nic nie tłumaczy morderstwa!

Ref. Umieram - gdy widzę jak błądzimy we mgle …

Kiedy umierasz - spokój gasi ich łzy
Lecz z odejściem twoim wkrótce nadchodzą złe sny
Koniec prawie zawsze jest początkiem...
Bredząc trzy po trzy wtedy zjawiasz się ty
Jesteś Władcą Snów - zawsze idą bez słów!
I znów zginą miliony gdy wraz z dziećmi swymi
Zmienisz inny kraj w krainę cieni

Ref. Umieram - gdy widzę jak błądzimy we mgle …


zwrotka
E--------------------------------------------------------------------
H--------------------------------------------------------------------
G----------------------0---------------------------------------------
D--5-7-5-4-5-4-------4---4-----5-7-5-4-5-4-------------4-5-7-5-4-5---
A--7-----5-----5---2-------2---7-----5-----5-5>7---7-7---7-----5-----
E--0-----0-------0-----------0-0-----0-----------0-------0-----0-----


Przedrefren x4
E----------------------------------------------\---------------------
H---------------0------------------------------\---------------------
G-----------0-----0----------------------------\---------------------
D-4-------4---4-----5-7-5-4-5-4----------------\---------------------
A---5---2-----------7-----5-----5-5>7---7------\--5-4-2-4-5-2--------
E-----0-------------0-----0-----------0--------\--3-2-0-2-3-0--------



Refren x4 (końcówka refrenu: urwanie w miejscu znaczków ] ] ])
E---------------------]------------------------------0---------------
H---------------------]--------------------------------0-------------
G---------------------]----------------------------------0-----------
D-1-2-2-2-2--2-2-2-4-4-4-4-------------------------------------------
A-2-3-3-3-3--3-3-3-5-5-5-5--------2-2-2--------2-2-2-----------------
E-2-3-3-3-3--3-3-3-5-5-5-5--0-0-2~0-0-0--0-0-2~0-0-0-----------------


II zwrotka, początek tak samo inne wykończenie, dwie gitary rozmijający riff
1 gitara
E--------------------------------------------------------------------
H----0---------0-----0-----------------------------------------------
G------0-----2---------0-------0---2-4-2---0-------------------------
D--2-----2-4-----4-2-----2---4---4-4-----4-2-------------------------
A--------------------------3-----------------------------------------
E--------------------------------------------------------------------
2 gitara
E--------------------------------------------------------------------
H----0---------0-------0-------0-------------------------------------
G------0-----2-------4-------5---5-5-7-5---4-------------------------
D--2-----0-4-----4-5-----5-7-------7-----7-5-------------------------
A--------------------------------------------------------------------
E--------------------------------------------------------------------


Akustyczne solo
E---------------------------------12-14-15-14-12-------------15------
H------------------5---7----------12-------------15-13-13>12----12>--
G---4-5-4-2-4>-5-7---7---5-4---4--12---------------------------------
D----------------------------7---------------------------------------
A--------------------------------------------------------------------
E-0>-----------------------------------------------------------------

E-----14------10-----------------------------------------------------
H->10----10>8---8-7-7-8----------------------------------------------
G-------------------8-9----------------------------------------------
D--------------------------------------------------------------------
A--------------------------------------------------------------------
E--------------------------------------------------------------------

dodaj akordy


twoja ocena:

Dodaj komentarz anonimowo lub zaloguj się
 
5 416 wyświetleń
przysłano: 20 lipca 2007

Inne interpretacje tego utworu

Hunter

Istnieje więcej niż jeden wykonawca/zespół o nazwie Hunter : 1.Polski zespół heavymetalowy, założony przez Pawła Grzegorczyka i Grzegorza…

Strona korzysta z plików cookie w celu realizacji usług zgodnie z Polityką prywatności.
Możesz określić warunki przechowywania lub dostępu do cookie w Twojej przeglądarce.

Zgłoś obraźliwą treść

Uzasadnij swoje zgłoszenie.

wpisz wiadomość


lub tradycyjnie
login lub email
hasło