Piosenki dla dzieci


pełny ekran

Wlazł kotek na płotek – Piosenki dla Dzieci

tekst piosenki tabulatura

E--3--0--0--1----------0-3|
H---------------3--3--1-----|
G----------------------------|
D----------------------------|
A----------------------------|
E----------------------------|


Wlazł kotek na płotek i mruga.

 

E--3--0--0--1----------0--|
H---------------3--3--1---1|
G----------------------------|
D----------------------------|
A----------------------------|
E----------------------------|


Ładna to piosenka niedługa.


E----0--0--1----------0-3|
H--1----------3--3--1----|
G------------------------|
D------------------------|
A------------------------|
E------------------------|


Niedługa, niekrótka, lecz w sam raz.


E--3--0--0--1----------0--|
H---------------3--3--1---1|
G----------------------------|
D----------------------------|
A----------------------------|
E----------------------------|


Zaśpiewaj koteczku jescze raz.

dodaj akordy


6
fatalny
0
słaby
1
przeciętny
0
niczego sobie
3
wartościowy
3
bardzo dobry
13
wyśmienity
wartościowy+ 26 głosów
twoja ocena:


Dodaj komentarz anonimowo lub zaloguj się
 

Wpisz kod zabezpieczający:


Wraz z komentarzem będzie zapisany twój adres IP.
Obraźliwe komentarze będą usuwane.
Zaba
Zaba 26 maja 2009, 16:39
wlazł kotek na płotek do biesiadnych ...
XDD
simikao 6 marca 2010, 18:34
cyfry w tabulaturze zapisane pod sobą oznaczają dwudźwięki, ale tu tak nie jest, więc uwaga
maciek
maciek 5 grudnia 2013, 13:56
jesce nie nauczyłem się polskiego
rss
34 635 wyświetleń
przysłano: 1 lutego 2009

Inne interpretacje tego utworu

rss

Strona korzysta z plików cookie w celu realizacji usług zgodnie z Polityką prywatności.
Możesz określić warunki przechowywania lub dostępu do cookie w Twojej przeglądarce.

Zgłoś obraźliwą treść

Uzasadnij swoje zgłoszenie.

wpisz wiadomość


lub tradycyjnie
login lub email
hasło
współpraca