pełny ekran dodaj teledysk

How You Remind Me – Nickelback

tekst utworu tabulatura

 Never made it as a wise man
I couldn't cut it as a poor man stealing
Tired of living like a blind man
I'm sick of sight without a sense of feeling
And this is how you remind me
This is how you remind me
Of what I really am
This is how you remind me
Of what I really am

It's not like you to say sorry
I was waiting on a different story
This time I'm mistaken
for handing you a heart worth breaking
and I've been wrong, i've been down,
to the bottom of every bottle
these five words in my head
scream are we having fun yet?

yeah, yeah, yeah, no, no
yeah, yeah, yeah, no, no

it's not like you didn't know that
I said I love you and I swear I still do
And it must have been so bad
Cause living with me must have damn near killed you

And this is how, you remind me
Of what I really am
This is how, you remind me
Of what I really am

It's not like you to say sorry
I was waiting on a different story
This time I'm mistaken
for handing you a heart worth breaking
and I've been wrong, i've been down,
to the bottom of every bottle
these five words in my head
scream are we having fun yet?

yeah, yeah, yeah, no, no
yeah, yeah, yeah, no, no
yeah, yeah, yeah, no, no
yeah, yeah, yeah, no, no



-------------------------------------------------------------------------

-------------------------------------------------------------------------

---5--5--5--5-------------------------3--3--3--3-------------------

---5--5--5--5------3--3--3--3------3--3--3--3------1--1--1--1

---3--3--3--3------3--3--3--3------1--1--1--1------1--1--1--1

----------------------1--1--1--1--------------------------------------    X4


-------------------------------------------------------------------------

-------------------------------------------------------------------------

---5--5----------3--3---------3--3--3--2---------------------------

---5--5----------1--1--1--0--3--3---------3-----------------------

---3--3--3--1--1--1----------1--1---------3--3--1---------------

------------------------------------------------3-----------------------     X2


------------------------------------------------------------------------

------------------------------------------------------------------------

---5--5------3--3------3--3--3--2----------------------------------

---5--5------1--1------3--3---------3--3---------------------------

---3--3------1--1------1--1---------3--3--3--1--------------------

----------------------------------------3--3----------------------------     X2


------------------------------------------------------------------------

------------------------------------------------------------------------

---5-----5--5-------------------------3--3--2-----------------------

---5-----5--5------3--3-------------3--3------1--1----------------

---3-----3--3------3--3--3--1------1--1------1--1----------------

---------------------5--5--------------------------1--1---------------     X2

dodaj akordy


twoja ocena:

Dodaj komentarz anonimowo lub zaloguj się
 
6 439 wyświetleń
przysłano: 22 marca 2009

Inne interpretacje tego utworu

Nickelback

Nickelback - grupa rockowa, założona w 1995 roku w Kanadzie. Od kilku lat cieszy się ogromną popularnością, szczególnie w Stanach…

Strona korzysta z plików cookie w celu realizacji usług zgodnie z Polityką prywatności.
Możesz określić warunki przechowywania lub dostępu do cookie w Twojej przeglądarce.

Zgłoś obraźliwą treść

Uzasadnij swoje zgłoszenie.

wpisz wiadomość


lub tradycyjnie
login lub email
hasło