Oj chmielu

Piosenki Ludowe

tekst utworu tabulatura
słowa: ludowe
muzyka: ludowa

 

1. Oj, chmielu, chmielu, ty bujne ziele,

    Nie będzie bez cię żadne wesele.

 

ref.: Oj, chmielu, oj, niebożę,

        Niech ci Pan Bóg dopomoże (1),

        chmielu niebożę.

 

2. Żebyś ty, chmielu, na tyczki nie lazł,

    Nie robiłbyś ty z panienek niewiast,

 

ref.: Oj, chmielu, oj niebożę…

 

3. Ale ty, chmielu, na tyczki włazisz,

    Niejedną panienkę wianeczka zbawisz,

 

ref.: Oj, chmielu, oj niebożę…

 

4. Oj, chmielu, chmielu, drobnego ziarnka,

    Nie będzie bez cię piwo, gorzałka.

 

ref.: Oj, chmielu, oj niebożę…

 

5. Oj, chmielu, chmielu, szerokie liście,

    Już Marysieńkę oczepiliście.

 

ref.: Oj, chmielu, oj niebożę...

 

6. Oj, chmielu, chmielu, szerokie grona,

   [Wczoraj] była młoda panna, a dziś już żona.

 

ref.: Oj, chmielu, oj niebożę...

 

------

(1) Niektórzy zamiast tego wiersza śpiewają:

      "To na dół, to ku górze", "Pnijże się, pnij po murze" lub "Wlazł na gałąź, zleźć nie może".

 

Tabulatura:

 

E --5--5--8----7--5-----5-------0-----5--5--8----7--5-----5-------0---

H-----------------------8--8--3-----------------------------8--8--3------

G---------------------------------------------------------------------------

D---------------------------------------------------------------------------
A---------------------------------------------------------------------------
E ---------------------------------------------------------------------------

 

E--3---0----3-3---0----3---0----3-3---0---------5-------0----

H ---3-----------3--------3-----------3----------8--8--3-------

G -----------------------------------------------------------------

D -----------------------------------------------------------------

A -----------------------------------------------------------------

E -----------------------------------------------------------------

 

(melodia na podst.: Cepelli J., Śpiewnik strzelecki szkoły junaka : dla organizacyj przysposobienia wojskowego, Warszawa, Główna Księgarnia Wojskowa, 1933, s. 337; dostępny w Internecie:

http://pbc.biaman.pl/dlibra/doccontent?id=7140&from=FBC)

 

Tekst na podstawie: Kozłowski Kornel, Lud : pieśni, podania, baśnie zwyczaje i przesądy ludu z Mazowsza Czerskiego wraz z tańcami i melodyami , Warszawa, 1869, s. 231.; dostępny w Internecie:

http://kpbc.umk.pl/dlibra/doccontent?id=154&from=FBC

oraz na podstawie nagrań z http://europeana.eu/portal/search.html?query=oj+chmielu

dodaj akordy


1
fatalny
0
słaby
0
przeciętny
0
niczego sobie
0
wartościowy
0
bardzo dobry
2
wyśmienity
wartościowy+ 3 głosy
twoja ocena:
Dodaj komentarz anonimowo lub zaloguj się
 
Olka
Olka 14 kwietnia 2016, 17:12
A ma ktoś oryginalny tekst ?
Joanna
Joanna 14 lutego 2017, 15:23
Kutas
rss
9 432 wyświetlenia
przysłano: 13 sierpnia 2011
dodaj teledysk

Strona korzysta z plików cookie w celu realizacji usług zgodnie z Polityką prywatności.
Możesz określić warunki przechowywania lub dostępu do cookie w Twojej przeglądarce.

Zgłoś obraźliwą treść

Uzasadnij swoje zgłoszenie.

wpisz wiadomość


lub tradycyjnie
login lub email
hasło