Wśród nocnej ciszy

Kolędy

tekst utworu tabulatura

   

1. Wśród nocnej ciszy głos się rozchodzi: 

wstańcie, pasterze, Bóg się wam rodzi. 
Czym prędzej się wybierajcie, 

do Betlejem pośpieszajcie 

przywitać Pana. 

2. Poszli, znaleźli Dzieciątko w żłobie 
z wszystkimi znaki, danymi sobie. 

Jako Bogu cześć Mu dali, 
a witając zawołali 
z wielkiej radości

3. Ach witaj, Zbawco, z dawna żądany, 
cztery tysięcy lat wyglądany. 

Na Ciebie króle, prorocy 
czekali, a Tyś tej nocy 
nam się objawił.

4. I my czekamy na Ciebie Pana, 
a skoro przyjdziesz na głos kapłana, 

Padniemy na twarz przed Tobą, 
I wierząc, żeś jest pod osłoną 
chleba i wina.

 

 

 

TAB:

 

 


e---------------0-0-1----0--|---------------0-0-1----0--|

H--1-3-0-1------------3-----|--1-3-0-1------------3-----|

G------------0--------------|--------------0------------|

D---------------------------|---------------------------|

A---------------------------|---------------------------|

E---------------------------|---------------------------|

ref.

e-----0----0-1---------|-----0----0-1---------|-------------0-|--------------|

H--1----1------3-0-----|--1----1------3-0-----|--1-1-3-3------|-1-1-3-3-1----|

G--------------------0-|---------------------0|---------------|--------------| ----------------------|----------------------|--D-------------|--------------| ----------------------|----------------------|

A---------------|--------------| ----------------------|

E----------------------|---------------|--------------|
 

 

 

 

 

 

 

Akordy występujące w tym utworze

powinno akord Pmowinno
byc akord Bmyc
tak akord Tmak
c akord Cm
d akord Dm
h akord Hm
..... akord .....

4
fatalny
0
słaby
0
przeciętny
1
niczego sobie
1
wartościowy
1
bardzo dobry
4
wyśmienity
niczego sobie+ 11 głosów
twoja ocena:
Dodaj komentarz anonimowo lub zaloguj się
 
Jagoda Anna Piegrzyk 27 listopada 2014, 19:27
powinno byc tak
c,d,h, wogule nie tak
rss
11 491 wyświetleń
przysłano: 12 stycznia 2014

Inne interpretacje tego utworu

310 głosów 81 komentarzy
Wśród nocnej ciszy
48 głosów 13 komentarzy
Wśród nocnej ciszy
55 głosów 7 komentarzy
Wśród Nocnej Ciszy
21 głosów 3 komentarze
Wśród nocnej ciszy
23 głosy 2 komentarze
Wśród nocnej ciszy

Kolędy

Największy w polskim Internecie śpiewnik online na łamach portalu kulturalnego Wywrota.pl prezentuje Wam teksty kolęd, zarówno tych…

Teledysk


Strona korzysta z plików cookie w celu realizacji usług zgodnie z Polityką prywatności.
Możesz określić warunki przechowywania lub dostępu do cookie w Twojej przeglądarce.

Zgłoś obraźliwą treść

Uzasadnij swoje zgłoszenie.

wpisz wiadomość


lub tradycyjnie
login lub email
hasło