Letni spacer z Agnieszką

Dżem

chwyty na gitarę tabulatura
tonacja 0

\GITARA 1 - Podkład
==================


E|----------0---------------0-----------------1-------------------0---------|
H|------------2---------------3------------3----3-------------------2------|
G|------2-------2-------2------2--------2---------2---------2--------2---|
D|----2-----------2---2----------2---0--------------0-----2-----------2--|
A|--0----------------0-----------------------------------0-------------------|
E|-----------------------------------------------------------------------------|


E|----------0---------------0-----------------1---------------------0-------|
H|------------2---------------3------------3----3------------3-----0-------|
G|------2-------2-------2------2--------2---------2--------2-----1-------|
D|----2-----------2---2----------2---0--------------0------3-----2-------|
A|--0----------------0----------------------------------------2-----2-------|
E|-----------------------------------------------------------------------------|

   (0:16sek.)
E|--0---0-----0-----0------0--0-0--0---0-0-0-0--0--0-0--0----------------|
H|--2---3------------2------3--0-0--2---3-3-3-2--2--3-3--0----------------|
G|--2---2------------2------2--1-1--2---2-2-2-2--2--2-2--1----------------|
D|--2---3------------2------3--2-2--2---3-3-3-3--2--3-3--2----------------|
A|--0---2--3--------0------2--2-2--0---2-2-2-2--0--2-2--2----------------|
E|-----------------------------------------------------------------------|

   (0:34 sek.)
E|---2----0----5-5---5-5----7-7-7-7----0---------------------------------|
H|---2----0----7-7---5-5----7-7-7-7----0---------------------------------|
G|---2----1----7-7---6-6----7-7-7-7----1---------------------------------|
D|---4----2----7-7---7-7----9-9-9-9----2---------X2----------------------|
A|---4----2----5-5---7-7----9-9-9-9----2---------------------------------|
E|---2----------5-5---5-5----7-7-7-7--------------------------------------|

   (0:50 sek)
E|----------0---------------0----------------0-----------0-0---0-0---0-0---0-0---0---0-|
H|------------2---------------3----------------2---------0-0---3-3---2-2---3-3---0---2-|
G|------2-------2-------2------2---------2------2-----1-1---2-2---2-2---2-2---1---2-|
D|----2-----------2---2----------2-----2----------2---2-2---3-3---2-2---3-3---2---2-|
A|--0----------------0----------------0------------------2-2---2-2---0-0---2-2---2---0-|
E|-----------------------------------------------------------------------------------------------|

   (1:06)
E|-0-0--0-0--0-0---0-0--0-0-0--0---0-0-0--|
H|-2-2--3-3--2-2---2-2--3-3-0--2---3-3-0--|
G|-2-2--2-2--2-2---2-2--2-2-1--2---2-2-1--|
D|-2-2--3-3--2-2---2-2--3-3-2--2---3-3-2--|
A|-0-0--2-2--0-0---0-0--2-2-2--0---2-2-2--|
E|---------------------------------------------------|

   (1:17 sek)
E|---2----0----5-5---5-5----7-7-7-7----0-------------|
H|---2----0----7-7---5-5----7-7-7-7----0-------------|
G|---2----1----7-7---6-6----7-7-7-7----1-------------|
D|---4----2----7-7---7-7----9-9-9-9----2--------X2--|
A|---4----2----5-5---7-7----9-9-9-9----2-------------|
E|---2---------5-5---5-5----7-7-7-7--------------------|

   (1:34 sek)
E|----------0----------------0--------------1------------0-------------0----0----0--|
H|------------2----------------3----------3--3------------2-----------3----2----0--|
G|------2-------2-------2--------2------2-----2------2-----2--------2----2----1--|
D|----2-----------2---2------------2--0-------------2--------2-------3----2----2--|
A|--0----------------0-----------------------------0--------------------2----0----2--|
E|---------------------------------------------------------------------------------------|

   (1:50 sek)
E|----------0-----------------0------------------0-----------------------------0---|
H|------------2-----------------3------------------2-------------------------2-----|
G|------2-------2--------2--------2----------2------2--------------------2-------|
D|----2-----------2----2------------2------2----------2----------------2---------|
A|--0----------------0-------------------0----------------------------0------------|
E|------------------------------------------------------------------------------------|




GITARA 2 - Solo
===============

   0:01               0:04                    
E|---------------------|--------------------------------|
B|---------------------|---------------12^13---------|
G|--6--7--7/9-7~--|--9^10--14--------10-9~--|
D|---------------------|--------------------------------|
A|---------------------|--------------------------------|
E|---------------------|--------------------------------|

   0:07
E|-----------------------------------------------------------------|
B|----- --10-12-12/14-12--10-12/14-12--10-12------|
G|--9/10--------------------------------------------------11--|
D|----------------------------------------------------------------|
A|----------------------------------------------------------------|
E|----------------------------------------------------------------|

   0:12                                                 0:17                      
E|------------------------------------------------------|-------------------------------------|
B|-----------12-12--12-12-------------------------|-------------------------------------|
G|--8/10--10-10--10-12---7/6--4-7p6\4-----|-------------------------------------|
D|--------------------------------------------------7--|--7h11--11/14--12--14--11--|
A|------------------------------------------------------|-------------------------------------|
E|------------------------------------------------------|-------------------------------------|

   0:21                       0:24                         
E|----------------------------|-----------------------------------------|
B|----------------------------|-----------------------------------------|
G|----------------------------|----7-6--------13-13--11-13--9---|
D|--7-9-9/11--9-11--7~-|--7-----9/14-14-14--12-14--11-|
A|-----------------------------|----------------------------------------|
E|-----------------------------|----------------------------------------|


   0:28                                           0:34
E|-------------------------------------------------|-----------------------------|
B|------12/14-12--10--12---10p9----------|10^--9---------10-------|
G|--7/9----------------------------------11-9--|-----------9-11------9~--|
D|-------------------------------------------------|-----------------------------|
A|-------------------------------------------------|-----------------------------|
E|-------------------------------------------------|-----------------------------|

   0:37                             0:41
E|----------------------------------|------------------------------------------------------------------------------|
B|----------------------------------|-----------10^--12--9--5--7---9/12-10--10-14p12-14p12-15~-|
G|--7-6-7--7h9p7\6-4-6-4--|--9-11-13------------------------------------------------------------------|
D|----------------------------------|------------------------------------------------------------------------------|
A|----------------------------------|------------------------------------------------------------------------------|
E|----------------------------------|------------------------------------------------------------------------------|

   0:47                                                  0:51                      
E|--------------------------------------------------------|--0----------0-------0---------------|
B|--14p12-14p12-10-9h10/12~--10-9-10~--|-----10-9-----9-7-----7-5p2--5--|
G|--------------------------------------------------------|---------------------------------------|
D|--------------------------------------------------------|---------------------------------------|
A|--------------------------------------------------------|---------------------------------------|
E|--------------------------------------------------------|---------------------------------------|

   0:55
E|---------------------------------|
B|---------------------------------|
G|---------------------------------|
D|--4/5-7-9-11-9-7--9b7~--|
A|----------------------------------|
E|----------------------------------|

   0:58                                             1:05
E|----5-9-10-12~---10p9--7~----------------|--0------------------------------------------|
B|-----------------------------------10p9--10~--|----10-12-12/14~-14-12-14--10~--|
G|--9------------------------------------------------|---------------------------------------------|
D|----------------------------------------------------|---------------------------------------------|
A|----------------------------------------------------|---------------------------------------------|
E|----------------------------------------------------|---------------------------------------------|

   1:08                                                        1:13                    1:15
E|--12--14-12----------------------------------------------|-------------------------|-----------------|
B|-----------------15/14--14h15-14-12-10--12/14--|--7/10-9/10--12~--|--10-9-7-5~--|
G|-------------------------------------------------------------|-------------------------|------------------|
D|--------------------------------------------------------------|-------------------------|-----------------|
A|--------------------------------------------------------------|-------------------------|-----------------|
E|--------------------------------------------------------------|-------------------------|-----------------|

   1:17
E|-----------------------------------5h7-9--12-10-9----------------------------------|
B|--5-7-9-10--12--9~--5--7------------------------12^-10~---9h10-9--7--5--|
G|------------------------------------------------------------------------------------------|
D|------------------------------------------------------------------------------------------|
A|------------------------------------------------------------------------------------------|
E|------------------------------------------------------------------------------------------|

   1:24                                    1:29
E|--------------------------------------------------|------------------------------------------------|
B|--------------------------------------------------|------------------------------------------------|
G|--7p6-6h7-4-2--4-4/6--4-2--------2-----|--2-6p5-6p5-7--6--4--7--6--4p2-4~--|
D|------------------------------------2--4-----2--|------------------------------------------------|
A|---------------------------------------------------|------------------------------------------------|
E|---------------------------------------------------|------------------------------------------------|

   1:33                                                               1:41
E|---------------------------------------------------------------------|------12--12~--9/10-9--7--5--|
B|--5h7--5~--2/5--5/3~---------------12^13--10--12/14--|--10--------------------------------|
G|------------------------------9^10--14---------------------------|-------------------------------------|
D|---------------------------------------------------------------------|-------------------------------------|
A|---------------------------------------------------------------------|-------------------------------------|
E|---------------------------------------------------------------------|-------------------------------------|

   1:44                             1:48                       1:51
E|-----------------------------------|----------------------------|-----------------------------|
B|--5/7-5--------------------------|----------------------------|-----------------------------|
G|---------6-4-2--4-4--4/6--4--|----------------------------|----------9--7--11--9~--|
D|-----------------------------------|----------------------------|--7-9-7--------------------|
A|-----------------------------------|--7-9-11-11/14--12---|-----------------------------|
E|-----------------------------------|----------------------------|------------------------------|

   1:54
E|--------------------------------------------|
B|--------------------------------------(5)---|
G|------------------------------------6------|
D|--2--4--9-9/11~---9---9---7---------|
A|--------------------------------------------|
E|--------------------------------------------|

dodaj akordy


twoja ocena

Dodaj komentarz anonimowo lub zaloguj się
 
szalona14 16 sierpnia 2010, 11:59
piękne ! :))
kocham słuchać tego ! <33
ale niestety tak dobrze zagrać nie potrafię ;((
rss
8 922 wyświetlenia
przysłano: 19 marca 2009 (historia)
nadesłał: tomislaw

Dżem

Dżem – polska grupa muzyczna grająca rocka i blues. Zaliczana jest do najważniejszych zespołów w historii polskiej muzyki rockowo-bluesowej…
dodaj teledysk

Strona korzysta z plików cookie w celu realizacji usług zgodnie z Polityką prywatności.
Możesz określić warunki przechowywania lub dostępu do cookie w Twojej przeglądarce.

Zgłoś obraźliwą treść

Uzasadnij swoje zgłoszenie.

wpisz wiadomość


lub tradycyjnie
login lub email
hasło