20 lat Wywroty

Number 1 Zero

Audioslave

tabulatura
********
*Tuning* It's drop D
********
Intro(0:00-0:40)

e|-------------------------------------------------------------------------|
B|-5--7------8--10---------------------------------------------------------|
G|-------------------------------------------------------------------------|
D|-------------------------------------------------------------------------|
A|----------------------5-7-\----------------------------------------------|
D|-------------------------------------------------------------------------|

you work out what effects you want
e|-------------------------------------------------------------------------|
B|-12--15--12--15--12--15--12----------------------------------------------|
G|-----------------------------12--14--12--11-------14--12--11-------------|
D|---------------------------------------------12---------------12---------|
A|-------------------------------------------------------------------------|
D|-------------------------------------------------------------------------|


e|-------------------------------------------------------------------------|
B|-12--15--12--15--12--15--12-------------------------------12-------------|
G|-----------------------------12--14--12--11-------14--12-----------------|
D|---------------------------------------------12--------------------------|
A|-------------------------------------------------------------------------|
D|-------------------------------------------------------------------------|


OK.. the verse(0:40-1:19) is wierd, I don't know the effects or anything so
its pretty useless me attempting it

chorus(1:19-1:33) Delay
(This bit is proper timing)
e|---------------5---------------5---|--------(0)------------------2-------|
B|-1---------1/5---1---------1/5-----|-------1---1---------------4---4-----|
G|-0-------2-------0-------2---------|-----0-------0------------4------4---|
D|-2-------2-------2-------2---------|---2-----------2--------4----------4-|
A|-3-------0-------3-------0---------|--3--------------------2-------------|
D|-0-------0-------0-------0---------|-------------------------------------|
Just when you think...'Cause baby if i need you, I will keep....

So after that stuff its back onto the intro(1:33-1:46)

Only this much
e|-------------------------------------------------------------------------|
B|-12--15--12--15--12--15--12-------------------------------12-------------|
G|-----------------------------12--14--12--11-------14--12-----------------|
D|---------------------------------------------12--------------------------|
A|-------------------------------------------------------------------------|
D|-------------------------------------------------------------------------|

Another verse(1:48-2:13) which is all echoey and stuff... yeah... echoey...

chorus like this
(This bit is proper timing)
e|---------------5---------------5---|--------(0)------------------2-------|
B|-1---------1/5---1---------1/5-----|-------1---1---------------4---4-----|
G|-0-------2-------0-------2---------|-----0-------0------------4------4---|
D|-2-------2-------2-------2---------|---2-----------2--------4----------4-|
A|-3-------0-------3-------0---------|--3--------------------2-------------|
D|-0-------0-------0-------0---------|-------------------------------------|
Just when you think...'Cause baby if i need you, I will keep....

After this hit distortion(2:33-3:01)

e|-------------------------------------------------------------------------|
B|-------------------------------------------------------------------------|
G|-------------------------------------------------------------------------|
D|-------------------------------------------------------------------------|
A|-------------------------------------------------------------------------|
D|5-4-2--2--2--0-2-2--2--2--5-4-2--2--2--0-2-2--2--2--5-4-2--2--2-0-2-2--2-2

e|-------------------------------------------------------------------------|
B|-------------------------------------------------------------------------|
G|-------------------------------------------------------------------------|
D|-------------------------------------------------------------------------|
A|---------------------5-7-9-7-5-------------------------------------------|
D|-5-7-7-5-7-7-5-7-8-9-----------------------------------------------------|
Faster Now
ALL THIS 2 TIMES!!! ( 2nd time w/o singin' )


Now look out, this 3rd time through like this(3:01-3:28)
e|-------------------------------------------------------------------------|
B|-------------------------------------------------------------------------|
G|-------------------------------------------------------------------------|
D|-------------------------------------------------------------------------|
A|-------------------------------------------------------------------------|
D|5-4-2--2--2--0-2-2--2--2--5-4-2--2--2--0-2-2--2--2--5-7-7--7--7-5-7-7--7-7
Down on the street...

e|-------------------------------------------------------------------------|
B|-------------------------------------------------------------------------|
G|-------------------------------------------------------------------------|
D|-------------------------------------------------------------------------|
A|-------------------5-9-7-5-----------------------------------------------|
D|5-7-7--7--7--5-7-8-------------------------------------------------------|

ALL THIS 2 TIMES!!!

Solo...not even gonna try

While morrello plays e string 22 fret on the end of the solo go back to the chorus
(This bit is proper timing)
e|---------------5---------------5---|---------0-------------------2-------|
B|-1---------1/5---1---------1/5-----|-------1---1---------------4---4-----|
G|-0-------2-------0-------2---------|-----0-------0------------4------4---|
D|-2-------2-------2-------2---------|---2-----------2--------4----------4-|
A|-3-------0-------3-------0---------|--3--------------------2-------------|
D|-0-------0-------0-------0---------|-------------------------------------|
Just when you think...'Cause baby if i need you, I will keep....

There we go all but the verse... whcih doesnt sound like fun to play anyway...

Finish with the intro... ironic...
(4:15-4:58)
e|-------------------------------------------------------------------------|
B|-12--15--12--15--12--15--12----------------------------------------------|
G|-----------------------------12--14--12--11-------14--12--11-------------|
D|---------------------------------------------12---------------12---------|
A|-------------------------------------------------------------------------|
D|-------------------------------------------------------------------------|


e|-------------------------------------------------------------------------|
B|-12--15--12--15--12--15--12-------------------------------12-bend-improv-|
G|-----------------------------12--14--12--11-------14--12-----------------|
D|---------------------------------------------12--------------------------|
A|-------------------------------------------------------------------------|
D|-------------------------------------------------------------------------|
dodaj akordy


twoja ocena

Dodaj komentarz anonimowo lub zaloguj się
 
322 wyświetlenia
przysłano: 30 sierpnia 2011 (historia)
nadesłał: damballa

Audioslave

Audioslave – amerykańska grupa rockowa, założona w maju 2001. W skład formacji weszli: były wokalista zespołu Soundgarden - Chris Cornell…
dodaj teledysk

Strona korzysta z plików cookie w celu realizacji usług zgodnie z Polityką prywatności.
Możesz określić warunki przechowywania lub dostępu do cookie w Twojej przeglądarce.

Zgłoś obraźliwą treść

Uzasadnij swoje zgłoszenie.

wpisz wiadomość


lub tradycyjnie
login lub email
hasło