20 lat Wywroty

Tell Me Baby (bass)

Red Hot Chili Peppers

tabulatura
Tuning: standard

Intro
(0:16)
G|------------------------|
D|------------------------|
A|-5~---------------------|
E|------------------------|

Verse
(0:19)
G|----------------------------------------------------------------|
D|-5h7-7----------5h7-7----------5h7-7----------5h7-7-7-----------|
A|-----------------------------------------------------0----------|
E|----5-x55x55-55----5-x55x55-55----5-x55x55-55----x------00-33---|

Variation
(0:46)
G|--------------------------------------------------------------|
D|-5h7-7----------5h7-7----------5h7-7----------5h7-7-----------|
A|--------------------------------------------------------------|
E|----5-x55x55-55----5-x55x55-55----5-x55x55-55----x-x5-00-33---|
*play until chorus

1st Chorus
(1:03)
G|----------------5------------------------------------------5-----|
D|----3---3----------------5---5-------7---------3---3-------------|
A|------------1/3---x-x----------------------------------1/3---x-x-|
E|-1x---x---1-----------3x---x---3-3/5---5-3--1x---x---1-----------|

G|----------------7------|
D|----5---5--------------|
A|------------3/5---x-x--|
E|-3x---x---3------------|

G|----------------5------------------------------------------5-----|
D|----3---3----------------5---5-------7---------3---3-------------|
A|------------1/3---x-x----------------------------------1/3---x-x-|
E|-1x---x---1-----------3x---x---3-3/5---5-3--1x---x---1-----------|


G|------------------------|
D|----5------5------------|
A|------------------------|
E|-33----3-33-------------|

G|----------------5------------------------------------------5-----|
D|----3---3----------------5---5-------7---------3---3-------------|
A|------------1/3---x-x----------------------------------1/3---x-x-|
E|-1x---x---1-----------3x---x---3-3/5---5-3--1x---x---1-----------|

G|----------------7------|
D|----5---5--------------|
A|------------3/5---5-5--|
E|-3x---x---3------------|

G|----------------5------------------------------------------5-----|
D|----3---3----------------5---5-------7---------3---3-------------|
A|------------1/3---x-x----------------------------------1/3---x-x-|
E|-1x---x---1-----------3x---x---3-3/5---5-3--1x---x---1-----------|


G|--------------------------------|
D|---5--5--5--5--5--5--5--5-------|
A|--------------------------------|
E|-33----33----3--3--33----3------| *Listen for timing

Go back to the verse here, play as many times as needed.
(1:41)
G|----------------------------------------------------------------|
D|-5h7-7----------5h7-7----------5h7-7----------5h7-7-7-----------|
A|-----------------------------------------------------0----------|
E|----5-x55x55-55----5-x55x55-55----5-x55x55-55----x------00-33---|

Variation
(2:08)
G|--------------------------------------------------------------|
D|-5h7-7----------5h7-7----------5h7-7----------5h7-7-----------|
A|--------------------------------------------------------------|
E|----5-x55x55-55----5-x55x55-55----5-x55x55-55----x-x5-00-33---|
*play until chorus

2nd Chorus
(2:26)
G|----------------5------------------------------------------5-------|
D|----3---3----------------5---5-------7---------3---3---------------|
A|------------1/3---x-x----------------------------------1/3---x-3h5-|
E|-1x---x---1-----------3x---x---3-3/5---5-3--1x---x---1-------------|

G|----------------7------|
D|----5---5--------------|
A|------------3/5---5----|
E|-3x---x---3------------|

G|----------------5------------------------------------------5-----|
D|----3---3----------------5---5-------7---------3---3-------------|
A|------------1/3---x-x----------------------------------1/3---x-x-|
E|-1x---x---1-----------3x---x---3-3/5---5-3--1x---x---1-----------|


G|------------------------|
D|----5------5------------|
A|------------------------|
E|-33----3-33--3----------|

G|----------------5------------------------------------------5-----|
D|----3---3----------------5---5-------7---------3---3-------------|
A|------------1/3---x-x----------------------------------1/3---x-x-|
E|-1x---x---1-----------3x---x---3-3/5---5-3--1x---x---1-----------|

G|----------------7------|
D|----5---5--------------|
A|------------3/5---5-x--|
E|-3x---x---3------------|

G|----------------5------------------------------------------5-----|
D|----3---3----------------5---5-------7---------3---3-------------|
A|------------1/3---x-5----------------------------------1/3---x-x-|
E|-1x---x---1-----------3x---x---3-3/5---5-3--1x---x---1-----------|

G|--------------------------------|
D|---5--5--5--5--5--5--5--5-------|
A|--------------------------------|
E|-33----33----3--3--33----3------|

Guitar Solo
(3:03)
G|----------------------------------------------|
D|-5h7-7----------5h7-7----------5h7-7----------|
A|----------------------------------------------|
E|----5-x55x55-55----5-x55x55-55----5-x55x55-55-| x3

fingerstyle
|------------------|
G|-----------5-7-9-7-5--------|
D|-5h7-7----5-----------------|
A|----------------------------|
E|----5-x55-------------------|

G|----------------------------------------------|
D|-5h7-7----------5h7-7----------5h7-7----------|
A|----------------------------------------------|
E|----5-x55x55-55----5-x55x55-55----5-x55x55-55-| x3

fingerstyle
|-----------------|
G|-------------------------|
D|-5h7-7--5h7-5------------|
A|--------------7-5--------|
E|----5-xx----------8------|

Final Chorus

G|----------------5------------------------------------------5-----|
D|----3---3----------------5---5-------7---------3---3-------------|
A|------------1/3---x-x----------------------------------1/3---x-x-|
E|-1x---x---1-----------3x---x---3-3/5---5-3--1x---x---1-----------|

G|----------------7------|
D|----5---5--------------|
A|------------3/5---5-5--|
E|-3x---x---3------------|

G|----------------5------------------------------------------5-----|
D|----3---3----------------5---5-------7---------3---3-------------|
A|------------1/3---x-x----------------------------------1/3---x-x-|
E|-1x---x---1-----------3x---x---3-3/5---5-3--1x---x---1-----------|


G|------------------------|
D|----5------5------------|
A|------------------------|
E|-33----3-33--3----------|

G|----------------5------------------------------------------5-----|
D|----3---3----------------5---5-------7---------3---3-------------|
A|------------1/3---x-x----------------------------------1/3---x-x-|
E|-1x---x---1-----------3x---x---3-3/5---5-3--1x---x---1-----------|

G|-----------------------|
D|----5---5--------------|
A|------------5-5-5-5----|
E|-3x---x---3------------|

G|----------------5------------------------------------------5-----|
D|----3---3----------------5---5-------7---------3---3-------------|
A|------------1/3---x-x----------------------------------1/3---x-x-|
E|-1x---x---1-----------3x---x---3-3/5---5-3--1x---x---1-----------|

G|-------------------------------|
D|-5----5----5----5----5---------|
A|-------------------------------|
E|---33---33---33---33---33--5~~-|

There you go. Email me with any comments or correction. Please Rate :)

=============================================================================

| / slide up
| slide down
| h hammer-on
| p pull-off
| ~ let ring
| + harmonic
| x Mute note
=============================================================================
dodaj akordy


twoja ocena

Dodaj komentarz anonimowo lub zaloguj się
 
526 wyświetleń
nadesłał: damballa

Red Hot Chili Peppers

Red Hot Chili Peppers – kalifornijski zespół założony w 1983 roku grający rock z elementami funku. Historia zespołu: W roku 1973…
dodaj teledysk

Strona korzysta z plików cookie w celu realizacji usług zgodnie z Polityką prywatności.
Możesz określić warunki przechowywania lub dostępu do cookie w Twojej przeglądarce.

Zgłoś obraźliwą treść

Uzasadnij swoje zgłoszenie.

wpisz wiadomość


lub tradycyjnie
login lub email
hasło