20 lat Wywroty

Don't cry

Guns N' Roses

tabulatura

intro
E|-----------|
B|-----------|
G|-----------|
D|-----------|
A|-----------|
E|-----3-----|
a m d m G
E|-------0-------------1---------------3--------------------------|
B|---------1---------3---3---------------3-----------------------|
G|-----2-----2-----2-------2---------0-----0-------0-----0-----|
D|---2---------0-0-----------------0-------------0-----0-------|
A|-0-------------------------0---2-----------0-3-----2-----3-2-|
E|-----------------------------3-------------------------------|
a m d m G
E|-------0-------------1----------------------------|
B|---------1---------3---3-------------------------|
G|-----2-----2-----2-------2---------0------------|
D|---2---------0-0-----------------0-----------2--|
A|-0-------------------------0---2--------------0-|
E|------------------------------3---------2-3-4---|
dodaj akordy


twoja ocena
1
fatalny
0
słaby
0
przeciętny
0
niczego sobie
0
wartościowy
0
bardzo dobry
1
wyśmienity
niczego sobie 2 głosy

Dodaj komentarz anonimowo lub zaloguj się
 
3 078 wyświetleń
przysłano: 16 kwietnia 2008 (historia)
nadesłał: Czarnaaa88

Inne interpretacje tego utworu

16 głosów 12 komentarzy
Don't cry
3 głosy
Don't Cry
5 głosów
Don't Cry
6 głosów
Don't cry

Guns N' Roses

Guns N' Roses – amerykańska grupa hard rockowa powstała w 1985 z połączenia dwóch zespołów - L.A. Guns i Hollywood Rose (Axl Rose, Izzy…
dodaj teledysk

Strona korzysta z plików cookie w celu realizacji usług zgodnie z Polityką prywatności.
Możesz określić warunki przechowywania lub dostępu do cookie w Twojej przeglądarce.

Zgłoś obraźliwą treść

Uzasadnij swoje zgłoszenie.

wpisz wiadomość


lub tradycyjnie
login lub email
hasło