Kankan

biesiadne

tabulatura

 

|--------------------2-5-2-2-0-0--2----2-0------------------------|
|----0-0-0-0-----2-3---------------------------2-2\0-2\0-2\0-2\0--|
|------------2-2--------------------1-1----2-2--------------------|
|--2--------------------------------------------------------------|x2
|-----------------------------------------------------------------|
|-----------------------------------------------------------------|


|------------------------------7-------------------0---10-9-7----------|
|-----------8-7---10---10---10---7-8-----------8-7------------10-8-7---|
|--7------9-----9--------------------9---9---9-------7---------------9-|
|----------------------------------------------------------------------|
|----------------------------------------------------------------------|
|----------------------------------------------------------------------|

|------------------------------7---------------------------------------|
|-----------8-7---10---10---10---7-8-----------8-7-----10---7----------|
|--7------9-----9--------------------9---9---9-----9-7----9---7--------|
|----------------------------------------------------------------------|
|----------------------------------------------------------------------|
|----------------------------------------------------------------------|


|--------------------2-5-2-2-0-0--2----2-0------------------------|
|----0-0-0-0-----2-3---------------------------2-2\0-2\0-2\0-2\0--|
|------------2-2--------------------1-1----2-2--------------------|
|--2--------------------------------------------------------------|x2
|-----------------------------------------------------------------|
|-----------------------------------------------------------------|

|------------------------------7-------------------0---10-9-7----------|
|-----------8-7---10---10---10---7-8-----------8-7------------10-8-7---|
|--7------9-----9--------------------9---9---9-------7---------------9-|
|----------------------------------------------------------------------|
|----------------------------------------------------------------------|
|----------------------------------------------------------------------|

|------------------------------7---------------------------------------|
|-----------8-7---10---10---10---7-8-----------8-7-----10---7----------|
|--7------9-----9--------------------9---9---9-----9-7----9---7--------|
|----------------------------------------------------------------------|
|----------------------------------------------------------------------|
|----------------------------------------------------------------------|

 

dodaj akordy


twoja ocena
słaby– 5 głosów

Dodaj komentarz anonimowo lub zaloguj się
 
16 972 wyświetlenia
przysłano: 21 września 2009 (historia)
nadesłał: Paula =)

Biesiadne

Specjalnie dla Was zebraliśmy w jednym miejscu teksty utworów biesiadnych, przyśpiewek ludowych, czy też tradycyjnych piosenek śpiewanych na…

Teledysk


Strona korzysta z plików cookie w celu realizacji usług zgodnie z Polityką prywatności.
Możesz określić warunki przechowywania lub dostępu do cookie w Twojej przeglądarce.

Zgłoś obraźliwą treść

Uzasadnij swoje zgłoszenie.

wpisz wiadomość


lub tradycyjnie
login lub email
hasło