We Wish You a Merry Christmas

Kolędy

tabulatura

We Wish You a Merry Christmas

------------------------------------------------------------------------------
-----------------------0-----------0-0-1-0------------------------------------
---0-0-2-0---------2-2---2-0---------------2-0---------2---0------------------
-0---------3-2-2-2-----------4-0-0-------------2-0-0-2---4--------------------
------------------------------------------------------------------------------
------------------------------------------------------------------------------


------------------------------------------------------------------------------
------------------------0---------3-------------------------------------------
---0-0-0-----0--------2---2-2-0-0-----------2---0-----------------------------
-0-------4-4---4-2-0----------------0-0-0-2---4-------------------------------
------------------------------------------------------------------------------
------------------------------------------------------------------------------
dodaj akordy


twoja ocena
niczego sobie– 21 głosów

Dodaj komentarz anonimowo lub zaloguj się
 
Zecia 29 listopada 2011, 10:23
Mogłeś oznaczyc struny.
Wera 15 grudnia 2011, 19:06
po co oznaczać struny? jak sie umie graać to sie wie jak się gra ;/
Parsifal
Parsifal 1 grudnia 2015, 13:22
to sa tablature, wiec jesli polozysz gitare to bedziesz miala to samo: na dole dolna E na gorze gorna E
Estera
Estera 4 grudnia 2016, 11:43
Nie wiem. Czy ta pierwsza linijka to zwrotka a 2 to ten niby refren? Proszę niech ktoś napisze
rss
13 846 wyświetleń
przysłano: 30 listopada 2009 (historia)
nadesłał: LUCJAWALCZAK

Kolędy

Największy w polskim Internecie śpiewnik online na łamach portalu kulturalnego Wywrota.pl prezentuje Wam teksty kolęd, zarówno tych…
dodaj teledysk

Strona korzysta z plików cookie w celu realizacji usług zgodnie z Polityką prywatności.
Możesz określić warunki przechowywania lub dostępu do cookie w Twojej przeglądarce.

Zgłoś obraźliwą treść

Uzasadnij swoje zgłoszenie.

wpisz wiadomość


lub tradycyjnie
login lub email
hasło